Offspring - Staring At The Sun Chords & Tabs

 

Staring At The Sun Chords & Tabs

Offspring Chords & Tabs

Version: 2 Type: Tab 0 ratings
1 star 2 stars 3 stars 4 stars 5 stars
comments

Staring At The Sun Tab

STARING AT THE SUN by The Offspring. Album : Americana (1998)
[ Tab from: http://www.guitartabs.cc/tabs/o/offspring/staring_at_the_sun_tab_ver_2.html ]
:
# intro #   !palm-muted!                 
E-------------------------------------|   
B-------------------------------------|   
G-------------------------------------|   
D---7-7-7-5-7-7-7-5-7-7-7-5-7-7-7-5---|   
A---5-5-5-3-5-5-5-3-5-5-5-3-5-5-5-3---|   
E-------------------------------------|   
:
# verse # !palm-muted!  *=play 4X   #=play 4X without mute
E----------X3-----------------|-----------------------|
B-----------------------------|--------------#-----#--|
G----*-----*-----------*------|--*-----*----3-----5---|
D---7----10------*----5-----6-|10----10-----3-----5---|
A---5-----8-----5-----3-----4-|-8-----8-----1-----3---|
E---------------3-------------|-----------------------|
:
# verse2+chorus # X2 !use palm-muting!  *=play 4X   #=play 4X without mute
E-------------X3--------------|-----------------------|
B-----------------------------|--#-----#-----#-----#--|
G----*-----*-----------*------|-7----10----12----14---|
D---7----10------*----5-----6-|-7----10----12----14---|  (end with first note)
A---5-----8-----5-----3-----4-|-5-----8----10----12---|
E---------------3-------------|-----------------------|
:
# verse3 #   %=pause   *=play 4X
E-------------X3--------------|-----------------------|
B-----------------------------|--*-----*-----*-----*--|
G---7-7-7-71010-------5-5-5-6-|10----10-----3-----5---|
D---7-7-7-71010-5-5---5-5-5-6-|10----10-----3-----5---|
A---5-5-5-5-8-8-5-5---3-3-3-4-|-8-----8-----1-----3---|
E---------------3-3-%---------|-----------------------|
:
# verse4 #   *=play 4X        (Though you hear me...)
E------------X3---------------|-----------------------|
B-----------------------------|--*-----*-----*-----*--|
G---7-7-7-------------5-5-5-6-|-7----10----12----14---|
D---7-7-7-3-3-3-5-5-5-5-5-5-6-|-7----10----12----14---|
A---5-5-5-3-3-3-5-5-5-3-3-3-4-|-5-----8----10----12---|
E---------1-1-1-3-3-3---------|-----------------------|
:
# chorus2 # X2  *=play 7X with palm-muting
E-------------------------------|
B----*-----*-----*--------------|
G---7----10----12-----5-5-5-6---|
D---7----10----12-----5-5-5-6---| > Then play verse3, verse4 and chorus2X2.
A---5-----8----10-----3-3-3-4---|
E-------------------------------|
:
# bridge #   %=pause  *=play 4X
E-------------------------------------------------------------|
B----------------------------------------*-----*-----*-----*--|
G---7---------5-7-----5-5-6-7-----5-5-610----10-----3-----5---|
D---7---------5-7-----5-5-6-7-----5-5-610----10-----3-----5---|
A---5-%%%%%%%-3-5-%%%-3-3-4-5-%%%-3-3-4-8-----8-----1-----3---|
E-------------------------------------------------------------|
:
Comments