Offspring - Staring At The Sun Chords & Tabs

 

Staring At The Sun Chords & Tabs

Offspring Chords & Tabs

Version: 2 Type: Bass Tab 0 ratings
1 star 2 stars 3 stars 4 stars 5 stars
comments

Staring At The Sun Bass Tab

   
Song: Staring At The Sun	
Artist: The Offspring
Album: Americana
Tabbed By: Ba$$ Lizard (CRoyale007@aol.com)
*Member Of The Bass Tab Archive Tabbing Army*
Previous Author: Christian Mangs

*INTRO*

G:--------------------------------
D:--------------------------------
A:-5-5-5-5-8-8-8-8---------3-3-3-4
E:-----------------3-3-3-3-------- 
Play 3x, then

*ENDING 1*

G:--------------------------------
D:--------------------------------
A:-8-8-8-8-8-8-8-8-1-1-1-1-3-3-3-3
E:--------------------------------
Play 1X, then

Play INTRO 3X, then

*ENDING 2*

G:----------------------------------------
D:----------------------------------------
A:-5-5-5-5-7-7-7-7-10-10-10-10-12-12-12-12
E:----------------------------------------
Play 1X, then

*CHORUS*
[ Tab from: http://www.guitartabs.cc/tabs/o/offspring/staring_at_the_sun_btab_ver_2.html ]
G:--------------------------------
D:--------------------------------  (Yes, I know it's the same
A:-5-5-5-5-8-8-8-8---------3-3-3-4   as the intro)
E:-----------------3-3-3-3--------
Play 3x, then

Play ENDING 2 1X, then

*VERSE PART 1*

G:--------------------------------
D:--------------------------------
A:-5-5-5-5-8-8-8-----------3-3-3-4
E:-----------------3-3-3----------
Play 3X, then

Play ENDING 1 1X, then

*VERSE PART 2*

G:--------------------------------
D:--------------------------------
A:-5-5-5-------------------3-3-3-4
E:---------1-1-1---3-3-3----------
Play 3X, then

Play ENDING 2 1X
Play CHORUS 3X
Play ENDING 2 1X
Play VERSE PART 1 3X
Play ENDING 1 1X
Play VERSE PART 2 3X
Play ENDING 2 1X
Play CHORUS 3X, then

*BRIDGE*

G:-------------------------------
D:-------------------------------
A:-3-----3h5-----3-3-4-5----3-3-3
E:-------------------------------
1X, then

Play ENDING 1 1X
Play VERSE PART 1 3X
Play ENDING 2 1X
Play CHORUS 3X
Play ENDING 2 1X

That's It! It looks like a lot but it's really fast paced so it's
not really.
Comments