Offspring - Splinter Chords & Tabs

 

Splinter Chords & Tabs

Offspring Chords & Tabs

Version: 1 Type: Bass Tab 0 ratings
1 star 2 stars 3 stars 4 stars 5 stars
comments

Splinter Bass Tab

   
album: "Splinter" (2003)

1.Neocon
2.The Noose
3.Long Way Home
4.Hit That
5.Race Against Myself
6.(Can't Get My) Head Around You
7.Worst Hangover Ever
8.Never Gonna Find Me
9.Lightning Rod
10.Spare Me The Details
11.Da Hui
12.When You're In Prison

\"Neocon\" by the Offspring

G|------------------------------|
D|------------------------------|
A|-----7-7--7--7----7-7--7--7---|
E|-00-0-0-00-00-00-0-0-00-00-00-|

G|------------------------------|
D|------------------------------|
A|-----7-7--7--7----7-7--7--7---|
E|-00-0-0-00-00-00-0-0-00-00-00-|

G|------------------------------|
D|------------------------------|
A|-----7-7--7--7----7-7--7--7---|
E|-00-0-0-00-00-00-0-0-00-00-00-|

This is the main bass part in the whole song,
so play this part as much as needed.
This is the end of the song, play this once

G|---------------|
D|---------------|
A|---------------|
E|-0-0-0-0-0--00-|
Song: The Noose
Artist: The Offspring
Album: Splinter

i think this one?s more accurate than some of the others, the notes are pretty much
the same, but the order is a bit different

Intro: (come in 10 seconds into the song)
G:|--------|---------------------------------------|
D:|--------|----------------------7----------------|
A:|7777/-\-|77777------------55555-55-77-9-10-10-99| x1
E:|--------|-----00-333333-03----------------------|

G:|--------|
D:|--------|
A:|--------| x1
E:|0~0~0~0~|


G:|-----------------------|
D:|-----------------------|
A:|777-5-777-5-777-5-777-5| x2
E:|-----------------------|

1st Verse:
G:|---------------------------------------------|
D:|---------------------------------------------|
A:|777-5-777-5-----------555-3-555-3-777-5-777-5| x1
E:|-----------333-2-333-2-----------------------|

G:|-----------------------------------|
D:|-----------------------------------|
A:|777-5-777-5-----------555-3-555-3-7| x1
E:|-----------333-2-333-2-------------|

G:|------------------------------------|
D:|------------------------------------|
A:|77777777----------55555555----------| x1
E:|---------33333333----------3333333-2|

G:|-----------------------------------|
D:|-----------------------------------|
A:|77777777---------------------------| x1
E:|---------33333333-222222222222-3333|

1st Chorus:
G:|--------------------------------------|
D:|--------------------------------------|
A:|77777777-5----------555-3-555-77777777| x2
E:|-----------33333-333------------------|

2nd Verse:
G:|-------------------------------------------|
D:|-------------------------------------------|
A:|777-5-777-------------555-3-555-3-777-5-777|
E:|---------2-333-2-333-2---------------------|

G:|----------------------------------------------------|
D:|----------------------------------------------------|
A:|777-5-777-----------------------------------10101010| x1
E:|---------2-333-2-333-2222222222222222222222/--------|

2nd Chorus:
G:|--------------------------------------|
D:|--------------------------------------|
A:|77777777-5----------5555555-3-77777777| x1
E:|-----------3333333-2------------------|

G:|---------------------------------------|
D:|---------------------------------------|
A:|77777777-5----------5555555-3-7777-10-9| x1
E:|-----------3333333-2-------------------|

Bridge:
G:|---------------------------------------------|
D:|---------------------------------------------|
A:|777-5-777-5-----------555-3-555-3-777-5-777-5| x1
E:|-----------333-2-333-2-----------------------|

G:|--------------------------------------------|
D:|--------------------------------------------|
A:|777-5-777-5-1010101010101010--------55555555| x1
E:|----------------------------33333333--------|

G:|--------------------------------------|
D:|--------------------------------------|
A:|77777777-5----------555-3-555-77777777| x1
E:|-----------333-2-333------------------|

G:|-------------------------------------------|
D:|-------------------------------------------|
A:|77777777-5----------55555555-3-7777-10-9---| x1
E:|-----------333-2-333-----------------------|

G:|--------|
D:|--------|
A:|--------| x1
E:|0~0~0~0~|
(rest for a bit during guitar fill)

G:|-----------------------|
D:|-----------------------|
A:|---------------7777/-\-| x1
E:|00---00---00-----------|

Breakdown:
G:|---------------------------------------|
D:|----------------------7----------------|
A:|77777------------55555-55-77-9-10-10-99| x2
E:|-----00-333333-03----------------------|

G:|--------------------------------|
D:|--------------------------------|
A:|5/7?-7----------3/5---5-5/7---7-| x3
E:|----0---2/3-33-0----0-------0---|

G:|---------------------------------------|
D:|---------------------------------------|
A:|5/7?-7---------3/55555555-7777-10101010| x1
E:|----0---2/3-33-------------------------|

3rd Chorus:
G:|------------------------------------------|
D:|------------------------------------------|
A:|77777777-5------------5555-3-5555-77777777| x2
E:|-----------3333-2-3333--------------------|

G:|--------------------------------------------|
D:|--------------------------------------------|
A:|77777777-5-1010101010101010-5555-3-5555/9999| x1
E:|--------------------------------------------|

Ending:
G:|----------|
D:|----------|
A:|----------| x1
E:|0~0~0~0~0~|

Artist: The Offspring
Song: Long Way Home
Album: Splinter
Bassist: Greg K.
Tuning: Standard

Intro
G|----------|----|
D|----------|----|
A|-3~-5~-7\-|----|
E|----------|-7\-|

Verse
G|----------------------|
D|----------------------|
A|-77-5-77-5------33-55-|2x
E|-----------5555-------|

G|--------------------------------------|
D|-----------55555555-------------------|
A|-77-5-77-5----------33333333-55555555-|
E|--------------------------------------|

-verse

Chorus     3x
G|--------------------|-------------------|
D|------5555----------|-------------------|
A|-7777-----5555------|-333333333333-5555-|
E|---------------5555-|-------------------|

Post Chorus
G|--------------|
D|--------------|
A|-77-5-77-5-7\-|
E|--------------|

-verse 2x
-chorus

End of Chorus (subsitute this for the second half of the last chorus played)
G|--------------------------------------|
D|--------------------------------------|
A|-3333333333333333-5555555555555555-7\-|
E|--------------------------------------|

Bridge                 repeat until breakdown-
G|------------------|---------------------|  ---|
D|------------------|---------------------| <---|
A|------------------|-77-5-77-5-77-5-77-5-------|
E|-0000000000000000-|---------------------------|

G|----------------------------------|
D|----------------------------------|
A|-33333333-55555555-2-2--2-2--2-2--|
E|----------------------------------|

-Chorus
-Chorus (with substution)

artist- the offspring
song- hit that

Sorry i had to do this, the other guys was right, but not in correct order
plus some modifications had to be made....enjoy!!!
this song has a funky bass line.

intro x1
--------------------------------------------|
--------------------------------------------|
--------------------------------------------|
---3---5-----0-0-0--------------------------|

verse x7

-----------------------------------------------------|
-----------------------------------------------------|
---5-7---5-7---5-7---5-7---5-7---5-7-----------------|
--0----0-----0-----0-----0-----0------(7653 or 12/)--|


You alternate between the slide and the notes. Notes work with the piano,
slide on its own...

pre chorus

---------------------------------|
---5---5---5---5----7--7--7--7---|
---------------------------------|
-3---3---3---3----5---5--5--5----|

chorus

-----------------------------------------|
------------------5-5-5-5--7-7-7-7-------|x2
-7-7-7-7-7-7-7-7-------------------------|
0-0-0-0-0-0-0-0--3-3-3-3--5-5-5-5--------|

------------------------------------------|
-------------------10-10-10-10--7-7-7-7---|
-7-7-7-7-7-7-7-7--------------------------|
0-0-0-0-0-0-0-0---8--8--8--8---5-5-5-5----|

-----------------------------------------|
----------9-9-9-9------------------------|
-7-7-7-7---------------------------------|
0-0-0-0--7-7-7-7----3--5---0-0-0---------|


verse x4

-----------------------------------------------------|
-----------------------------------------------------|
---5-7---5-7---5-7---5-7---5-7---5-7-----------------|
--0----0-----0-----0-----0-----0------(7653 or 12/)--|

(No bass here)
Then
verse x7

--------------------------------------------------------|
--------------------------------------------------------|
-------- 5-7---5-7---5-7---5-7---5-7--------------------|
--76530-0-----0-----0-----0-----0------(7653 or 12/)----|

pre chorus

---------------------------------|
---5---5---5---5----7--7--7--7---|
---------------------------------|
-3---3---3---3----5---5--5--5----|

chorus

-----------------------------------------|
------------------5-5-5-5--7-7-7-7-------|x2
-7-7-7-7-7-7-7-7-------------------------|
0-0-0-0-0-0-0-0--3-3-3-3--5-5-5-5--------|

------------------------------------------|
-------------------10-10-10-10--7-7-7-7---|
-7-7-7-7-7-7-7-7--------------------------|
0-0-0-0-0-0-0-0---8--8--8--8---5-5-5-5----|

-----------------------------------------|
----------9-9-9-9------------------------|
-7-7-7-7---------------------------------|
0-0-0-0--7-7-7-7----3--5---0-0-0---------|

(Another Silent Bit)
Then

verse x1

--------------------------------------------------------|
--------------------------------------------------------|
-------- 5-7---5-7---5-7---5-7---5-7--------------------|
--76530-0-----0-----0-----0-----0------(7653 or 12/)----|

pre chorus

---------------------------------|
---5---5---5---5----7--7--7--7---|
---------------------------------|
-3---3---3---3----5---5--5--5----|

chorus

-----------------------------------------|
------------------5-5-5-5--7-7-7-7-------|x2
-7-7-7-7-7-7-7-7-------------------------|
0-0-0-0-0-0-0-0--3-3-3-3--5-5-5-5--------|

------------------------------------------|
-------------------10-10-10-10--7-7-7-7---|
-7-7-7-7-7-7-7-7--------------------------|
0-0-0-0-0-0-0-0---8--8--8--8---5-5-5-5----|

-----------------------------------------|
----------9-9-9-9------------------------|
-7-7-7-7---------------------------------|
0-0-0-0--7-7-7-7----3--5---0-0-0---------|
[ Tab from: http://www.guitartabs.cc/tabs/o/offspring/splinter_btab.html ]
Artist: The Offspring
Song: Race Against Myself
Album: Splinter
Bassist: Greg K.
Tuning: Standard

Intro 4x                        4th time
G|---------------------|----------------------|
D|---------------------|----------------------|
A|------5-55------7-77-|-9-99\-5-55-----------|
E|-2-22------5-55------|------------5-55-0-00-|

G|----------------------------------------|
D|----------------------------------------|
A|----------------------------------------|2x
E|-1/2-22-2-22-22-2222-2\0-000-00-00-0000-|

Verse
G|-----------------------------------|
D|-----------------------------------|
A|-----------------------------------|
E|-2222222222222222-0000000000000000-|

Chorus  4x                       4th time
G|---------------------|----------------------|
D|---------------------|----------------------|
A|------5-55-----------|-9-99\-5-55-----------|
E|-2-22------5-55-0-00-|------------5-55-0-00-|

Preverse
G|----------------------------------------|
D|----------------------------------------|
A|----------------------------------------|2x
E|-1/2-22-2-22-22-2222-2\0-000-00-00-0000-|

-Verse
-chorus

Bridge
G|--------------------------------------------|
D|--------------------------------------------|
A|----------------3-2-0-2-----------------0-2-|
E|-0h222-22222222----------0h222-22222222-----|

-Chorus
-preverse

Ending
G|------------------|
D|------------------|
A|------------------|
E|-00-00-00-0000-2~-|

Cant' get my head around you
Intro 0:16
G|-----|
D|-----|
A|-----|
E|-10-|

Verse
G|-------------------------|
D|-------------------------|
A|-----------2-555---------|
E|-000-2-333-------3-555-3-|

Chorus
G|--------------------------------------------|
D|--------------------------------------------|
A|-3333333333333333----7----7----7----7-------|
E|------------------00----00----00----00------|

G|----------------------------------|
D|----------------------------------|
A|3333333333333333-5555555-22222222-|
E|----------------------------------|

-verse
-chorus
-verse
-verse during little solo

G|--------------------|
D|--------------------|
A|-7-7-7-7-7-7-7-7----|
E|--------------------|

-chorus
-BREAK
-verse

Ending
G|---------------------|
D|---------------------|
A|---------------------|
E|-00000000-0000000-0~-|

Artist: The Offspring
Song: Worst Hangover Ever
Album: Splinter
Bassist: Greg K.
Tuning: Standard

Intro
G|---------------------------------------|
D|------------4444-1---------------------|2x (second time w/out the slide)
A|9\------1-4--------4-4-44---4----------|
E|---2-22-------------------4---7-77-6-4-|

G|-------------------6-66---6-4-44-3-1-|
D|----------4444-1--------6------------|
A|------1-4--------4-------------------|
E|-2-22--------------------------------|

G|-------------------------------------|
D|-4-44--------------------------------|
A|------6-4------1-4-4-44---4----------|
E|----------2-22----------4---7-77-6-4-|

Verse  4x
G|-------------------------------|
D|-------1-----------------------|
A|-----1---4---4-44---4----------|
E|-2-2--------------4---7777-6-4-|

Chorus
G|-------------------------------------|
D|----------4444-1---------------------|2x
A|------1-4--------4-4-44---4----------|
E|-2-22-------------------4---7-77-6-4-|

G|-------------------6-66---6-4-44-3-1-|
D|----------4444-1--------6------------|
A|------1-4--------4-------------------|
E|-2-22--------------------------------|

Post Chorus (da dada da da da)
G|-------------------------------------|
D|-4-44--------------------------------|
A|------6-4------1-4-4-44---4----------|
E|----------2-22----------4---7-77-6-4-|

-verse
-chorus

Bridge
G|-------------------------------------------|
D|-------------------------------------------|
A|-11111111-22222222---1-4---1-4---1-4---1-4-|
E|-------------------2-----2-----2-----2-----|

G|----------------------------|---------------|
D|---------------666----------|---------------|
A|----3-4-66-3-------4-66-3---|-4---4--4---9\-|
E|-44----------4------------4-|---------------|

-verse (w/out words)
-chorus
-post chorus

Outro
G|----------------------|
D|----------------------|
A|-11111111-22222222----|
E|-------------------2~-|


Artist: The Offspring
Song: Never Gonna Find Me
Album: Splinter
Bassist: Greg K.
Tuning: Standard

Verse
G|-------------------------------------|------|
D|-------------------------4444--------|------|
A|--66666666----------2222------666666-|------|
E|-----------44444444------------------|-6666-|

Chorus2x   /2x\
G|-------------------|--------------------------------------|----|
D|---------4-44------|--------------------------------------|----|
A|-6666666------4-44-|-66666666-------------------22-2-44-4-|-6\-|
E|-------------------|----------22222222-44444444-----------|----|

-verse
-chorus

Bridge/ending    2x
G|------------------|
D|------------------|
A|-666----2222-6666-|
E|-----44-----------|

G|-------------------------------------------|
D|-------------------------------------------|2x
A|66-66-6-66------------22-22-2-22-6666-4/66-|
E|-----------44-44-4-44----------------------|

(repeat until bass stops)
G|--------------------------------------|
D|--------------------------------------|
A|-66666666----------22222222-666666666-|
E|----------44444444--------------------|

Artist: The Offspring
Song: Lightning Rod
Album: Splinter
Bassist: Greg K.
Tuning: Standard

Intro  *This might not actually be played. ears playing tricks on me
G|------------------|
D|------------------|
A|------------------|
E|-1111111111111111-|
Artist: The Offspring
Song: Spare Me The Details
Album: Splinter
Bassist: Greg K.
Tuning: Standard & Half A Step Down

*This song is actually half a step down but i tabbed it out both ways)

Intro
G|-----------------|
D|-----------------|
A|---------666-444-|
E|-444-444---------|

Gb|-----------------|
Db|-----------------|
Ab|---------777-555-|
Eb|-555-555---------|

Verse 2x
G|-----------------------------------------------|
D|-----------------------------------------------|
A|-------------666---444---------------4444-6666-|
E|-44-1/33-444-----6-----6-3/444-3/444-----------|

Gb|-----------------------------------------------|
Db|-----------------------------------------------|
Ab|-------------777---555---------------5555------|
Eb|-55-2/44-555-----7-----7-4/555-4/555------0000-|

Prechorus "And I don't really wanna know"
G|-----------------|
D|-----------------|
A|---------666-444-|
E|-444-444---------|

Gb|-----------------|
Db|-----------------|
Ab|---------777-555-|
Eb|-555-555---------|

Chorus                   last time
G|-----------------|--------------------|
D|-----------------|--------------------|
A|---------666-444-|---------888---6666-|
E|-444-444---------|-444-444-----8------|

Gb|-----------------|--------------------|
Db|-----------------|--------------------|
Ab|---------777-555-|---------999---7777-|
Eb|-555-555---------|-555-555-----9------|

-intro
-verse
-prechorus
-chorus

Bridge
G|-------------|-------------------------------------|
D|-------------|-------------------------------------|
A|-------------|-88888888----------66666666----------|
E|-4~-44444444-|----------66666666----------88888888-|

Gb|-------------|-------------------------------------|
Db|----77777777-|-------------------------------------|
Ab|-------------|-99999999----------77777777----------|
Eb|-5~----------|----------77777777----------99999999-|

G|-------------------------------------------------------------|
D|-----------------------------------------------6-5---5-------|
A|-88888888----------6666666666666666-44444444-------6---6-4-3-|
E|----------66666666---------------------------4---------------|

Gb|-------------------------------------------------------------|
Db|-----------------------------------------------7-6---6-------|
Ab|-99999999----------7777777777777777-55555555-------7---7-5-4-|
Eb|----------77777777---------------------------5---------------|

-intro

Verse 2x
G|------------------------------------|
D|------------------------------------|
A|----------666-3-44----------444-666-|
E|-2/44-444----------2/44-444---------|

Gb|------------------------------------|
Db|------------------------------------|
Ab|----------777-4-55----------555-----|
Eb|-3/55-555----------3/55-555-----000-|

-Prechorus
-chorus

End on E|-4~-|
      Eb|-5~-|


Verse
G|-------------------------------------|
D|-------------------------------------|
A|-88888888----------44444444----------|
E|----------66666666----------11111111-|

Chorus "Locked Up Forever Inside"
G|---------------------------------|
D|---------------------------------|2x
A|-------------66-4-66-4-66-4-66-4-|
E|-1-1-3-4-3-1---------------------|

G|----------------------------|-------------|
D|----------------------------|-------------|
A|-------------4-3-1-6666-4-6-|-4~-6~-4~-6~-|
E|-1-1-3-4-3-1----------------|-------------|

-verse
-chorus (play the 3rd part twice)
-verse

Bridge
G|-------------------------------------|
D|-------------------------------------|
A|----------11111111-44444444----------|
E|-11111111-------------------11111111-|

-chorus

Outro
G|----------------------------------|
D|----------------------------------|
A|-88888888----------44444444-------|
E|----------66666666----------1-1-1-|

Da Hui
intro,verses and under the solo

G|-------------------------------------------------|
D|------------------2-2-2-2------------------------|
A|--------------------------2-2-4-2----------------|
E|--4-4-4-2-4-4-4-4--------------------------------|

chorus

G|-------------------------------------------------|
D|--2-2-2-2----------------------------------------|
A|-------------------------------------------------|
E|----------2-2-2-2-4-4-4-4-4-4-4-4----------------|

under gang vocals

G|-------------------------------------------------|
D|-------------------------------------------------|
A|-------------------------------------------------|
E|--2-4-r-r-4-4-r-r-2-4-r-4-r-4--------------------|


Outro

G|-------------------------------------------------|
D|-------------------------------------------------|
A|-------------------------------------------------|
E|--4-4-4-4-4-2-5---4------------------------------|

note, r= 1 beat rest

When your in prison (haven't figured it out yet.)
Comments