Offspring - Special Delivery Chords & Tabs

 

Special Delivery Chords & Tabs

Offspring Chords & Tabs

Version: 5 Type: Tab 0 ratings
1 star 2 stars 3 stars 4 stars 5 stars
comments

Special Delivery Tab

Artist: The Offspring
Song: Special Delivery
Album: Conspiracy of one
Tunning: Standard
Tabbed By: Emmanuel (manuskatercky@hotmail.com)


Intro : (bass)
E--------------------------------|
B--------------------------------|
G--------------------------------|
D--------------------------------|
A------------------------7-9-9-7-|
E-12/--0-2-2--0-2-2-0-2-2--------|

Chorus: (00:41)
E---------------------------------------------------------|
B---------------------------------------------------------|
G---10-10-10--8-10-10-10--13--10-8-10------------8-8-8-8--|
D---10-10-10--8-10-10-10--13--10-8-10--6-6-6-6---8-8-8-8--|
A---8--8--8---6-8--8--8---11--8--6-8---6-6-6-6---6-6-6-6--|
E--------------------------------------4-4-4-4------------|
[ Tab from: http://www.guitartabs.cc/tabs/o/offspring/special_delivery_tab_ver_5.html ]
(1:17)Chorus 2                                           
E--------------------------------------------------------|
B--------------------------------------------------------|
G---10-10-10--8-10-10-10--13--10-8-10------------8-8-8-8-|
D---10-10-10--8-10-10-10--13--10-8-10--6-6-6-6---8-8-8-8-|
A---8--8--8---6-8--8--8---11--8--6-8---6-6-6-6---6-6-6-6-|
E--------------------------------------4-4-4-4-----------|

(1:38)
|--------------------------|
|--------------------------|
|-6-6-6-6-----------8-8-8--|
|-6-6-6-6--8-8-8-8--8-8-8--|
|-4-4-4-4--8-8-8-8--6-6-6--|
|----------6-6-6-6---------|

(2:14) Bridge:
   P.m  ....(2:26)
E------------------|
B------------------|
G---5-------10--10-|
D---5-------10--10-|
A---3-------8---8--|
E------------------|

End On:

E------|
B------|
G---10-|
D---10-|
A---8--|
E------|
Comments