Offspring - Special Delivery Chords & Tabs

 

Special Delivery Chords & Tabs

Offspring Chords & Tabs

Version: 3 Type: Tab 0 ratings
1 star 2 stars 3 stars 4 stars 5 stars
comments

Special Delivery Tab

e|---------------------------------------------------------
B|---------------------------------------------------------
G|---------------------------------------------------------
D|---------------------------------------------------------
A|-----*------------------7-7-9-9*-------------------7-7-9-9
E|-----14\2-2-0-2-2-0-2-2-----------0-2-2-0-2-2-0-2-2-------
*play once
then play the next bit for however many times until 'one day ....' which is:

e|----------------------------------------------------------
B|----------------------------------------------------------
G|----------------------------------------------------------
D|----------------------------------------------------------
A|--0-2-2-0-2-2-0-2-2-0-2-0------------------7-7-7-7-7-7-7-7
E|--------------------------2-0-2/5-5-5-5-5-5---------------


Chorus:
e|---------------------------------------------------------
B|---------------------------------------------------------
G|---11-11-11-9-11-14-11--9-9/11--------------9-9-9-9-9-9--
D|---11-11-11-9-11-14-11--9-9/11--7-7-7-7-7-7-9-9-9-9-9-9--
A|----9--9--9-7--9-12--9--7-7/-9--7-7-7-7-7-7-7-7-7-7-7-7--
E|--------------------------------5-5-5-5-5-5--------------
play however many times

Intro
Chorus
[ Tab from: http://www.guitartabs.cc/tabs/o/offspring/special_delivery_tab_ver_3.html ]
then:
e|----------------------------------------------------------
B|----------------------------------------------------------
G|--7-7-7-7-7-7-7-7-7-7-7-7-------------9---9-9---9-9-------
D|--7-7-7-7-7-7-7-7-7-7-7-7-9-9-9-9-9-9-9---9-9---9-9-------
A|--5-5-5-5-5-5-5-5-5-5-5-5-9-9-9-9-9-9-7---7-7---7-7-------
E|--------------------------7-7-7-7-7-7---------------------

play intro again until '' but you cant kill a man...''

e|----------------------------------------------------------
B|----------------------------------------------------------
G|----------------------------------------------------------
D|----------------------------------------------------------
A|--44444444444444444444444444------------------------------
E|--22222222222222222222222222------------------------------
P.M...........................

I dunno how many times you play that but you can work it out.

Then on ''god help me'':
e|----------------------------------------------------------
B|----------------------------------------------------------
G|----------11-11-------------------------------------------
D|----------11-11-------------------------------------------
A|-----------9--9-------------------------------------------
E|----------------------------------------------------------

After the last chorus just play:
e|----------------------------------------------------------
B|----------------------------------------------------------
G|--------------9-9-9-9-------------------------------------
D|--------------9-9-9-9-------------------------------------
A|--------------7-7-7-7-------------------------------------
E|----------------------------------------------------------

I think this is right, its from the tab book but i couldnt be bothered 
to go get it so this is how i remember it.
Comments