Offspring - Special Delivery Chords & Tabs

 

Special Delivery Chords & Tabs

Offspring Chords & Tabs

Version: 2 Type: Tab 0 ratings
1 star 2 stars 3 stars 4 stars 5 stars
comments

Special Delivery Tab

THE OFFSPRING

Song Name: "Special Delivery"     
Album: "Conspiracy of One"
TUNE YOUR GUITAR 1/2 TONE DOWN

CHORUS
[ Tab from: http://www.guitartabs.cc/tabs/o/offspring/special_delivery_tab_ver_2.html ]
eb----------------------------------------------------------------|   
Bb----------------------------------------------------------------|                 
Gb--11-11--9-11-11-11\--14-11-11-9-9-11-11-------------9--9--999--|  x 2
Db--11-11--9-11-11-11\--14-11-11-9-9-11-11--7--7--777--9--9--999--|   
Ab---9--9--7--9--9--9\--12--9--9-7-7--9--9--7--7--777--7--7--777--|   
Eb------------------------------------------5--5--555-------------|                 
                                                                  
CHORUS 2 Ending
                                
eb-------------------------------|                 
Bb-------------------------------|                 
Gb--77777777----------999999999#-|   
Db--77777777-99999999-999999999#-|                   
Ab--55555555-99999999-777777777#-|                 
Eb-----------77777777------------|                 
   |__________________________Not exact number..........              

BRIDGE Ending

eb----------------------------------------------------------------------------------------------|  
Bb----------------------------------------------------------------------------------------------|  
Gb--------------------------------------------------------------------------------------11-11#--| Then follow to CHORUS  
Db-444-2-444-2-444-2-444-2-444-2-444-2-444-2-444-2-444-2-444-2-444-2-444-2-444-2-444-2--11-11#--|                                                                 
Ab-444-2-444-2-444-2-444-2-444-2-444-2-444-2-444-2-444-2-444-2-444-2-444-2-444-2-444-2---9--9#--|                                                                   
Eb-222-0-222-0-222-0-222-0-222-0-222-0-222-0-222-0-222-0-222-0-222-0-222-0-222-0-222-0----------|                                                                   
  
\ = slide up
/ = slide down
# = release note after playing it (don't let ring)
m = play the note(s) with PALM MUTING
Comments