Offspring - Special Delivery Chords & Tabs

 

Special Delivery Chords & Tabs

Offspring Chords & Tabs

Version: 1 Type: Bass Tab 0 ratings
1 star 2 stars 3 stars 4 stars 5 stars
comments

Special Delivery Bass Tab

   
there are already two versions of special dilivery on this site 
but there is no bass tab, i dont play bass, i play guitar but i'm 100% sure 
this tab is right even though i tabbed it by ear and i'm only 12

VERSE 1

G----------------------------------------------------------
D---------------------------------------------------------- I THINK YOU PLAY
A--------------------7-9-9-9-------------------7-9-9-9----- THAT TWICE
E-14/2-2-0-2-2-0-2-2---------0-2-2-0-2-2-0-2-2---------0---

THEN YOU PLAY

G------------------------------------------------------------
D------------------------------------------------------------
A-2-2-0-2-2-0-2-2-0-2-0---------------------7-7-7-7-7-7-7-7--
E-----------------------2-0-5-5-5-5-5-5-5-5------------------

CHORUS
[ Tab from: http://www.guitartabs.cc/tabs/o/offspring/special_delivery_btab.html ]
G------------------------------------------------------------------
D------------------------------------------------------------------ X 2
A-9-9-9-9-9-9-9-9-9-9-9-9-9-9-9-9-----------------7-7-7-7-7-7-7-7--
E---------------------------------5-5-5-5-5-5-5-5------------------


VERSE 2 SAME AS VERSE 1

CHORUS 2 SAME AS CHRUS 1 BUT PLAY THE RIFF FOUR TIMES INSTEAD OF 2

TRIBAL PART HAS NO BASS

WHEN DEXTER GOES 'YOU CANT KILL A MAN WHEN HES GOT NO HOPE'
YOU START PLAYING

G---------------------------------------------
D---------------------------------------------
A--------------------------------------------- 
E-2-2-2-2-2-2-2-2-2-2-2-2-2-2-2-2-2-2-2-2-2-2-

I DONT KNOW HOW MANY TIMES YOU PLAY THAT

CHORUS 3 SAME AS CHORUS 2

THE END

RATE MY TABS!!!!



Comments