Offspring - Spare Me The Details Chords & Tabs

 

Spare Me The Details Chords & Tabs

Offspring Chords & Tabs

Version: 3 Type: Tab 0 ratings
1 star 2 stars 3 stars 4 stars 5 stars
comments

Spare Me The Details Tab

Artist: The Offspring
Title: Spare Me the Details
Album: Splinter
Tabber: danc446 (@yahoo.com)

INTRO
Rhythm  (CHORUS)
e|------------------------------|
B|----------------8-8-8--6-6-6--|
G|--5-5-5--5-5-5--8-8-8--6-6-6--|
D|--6-6-6--6-6-6--8-8-8--6-6-6--|
A|--6-6-6--6-6-6--6-6-6--4-4-4--|
E|--4-4-4--4-4-4----------------|
Lead
e|--------8-----6-----4----|
B|----9-----9-----8-----6--|
G|--8---8-----8-----6------|
D|-------------------------|
A|-------------------------|
E|-------------------------|

VERSE (One guitar PM, other open)
e|----------------------------------------------------------------------
B|----------------------------------------------------------------------
G|-----------------8-8-8-8-6-6-6-6-----------------6-6-6-6-6-8-8-8-8----
D|-6-6-6-6-6-6-6-6-8-8-8-8-6-6-6-6-6-6-6-6-6-6-6-6-6-6-6-6-6-8-8-8-8----
A|-6-6-6-6-6-6-6-6-6-6-6-6-4-4-4-4-6-6-6-6-6-6-6-6-4-4-4-4-4-6-6-6-6----
E|-4-4-4-4-4-4-4-4-----------------4-4-4-4-4-4-4-4----------------------
[ Tab from: http://www.guitartabs.cc/tabs/o/offspring/spare_me_the_details_tab_ver_3.html ]
        ---------------------------------|
        ---------------------------------|
        ------------------8-8-8--6-6-6---|
        ----6-6-6--6-6-6--8-8-8--6-6-6---|
        ----6-6-6--6-6-6--6-6-6--4-4-4---|
        ----4-4-4--4-4-4-----------------|

CHORUS end
e|----------------------------|
B|----------------------------|
G|--5-5-5--5-5-5--10-10--8-8--|
D|--6-6-6--6-6-6--10-10--8-8--|
A|--6-6-6--6-6-6---8--8--6-6--|
E|--4-4-4--4-4-4--------------|

BRIDGE
e|---------------------------------------------------------------------------
B|---------------------------------------------------------------------------
G|------1010101010101010-----------------8-8-8-8-8-8-8-8-5-5-5-5-5-5-5-5-----
D|---6--1010101010101010-8-8-8-8-8-8-8-8-8-8-8-8-8-8-8-8-5-5-5-5-5-5-5-5-----
A|---6---8-8-8-8-8-8-8-8-8-8-8-8-8-8-8-8-6-6-6-6-6-6-6-6-3-3-3-3-3-3-3-3-----
E|---4-------------------6-6-6-6-6-6-6-6-------------------------------------

      ----------------------------------------------------------------------|
      ----------------------------------------------------------------------|
      ----1010101010101010-----------------8-8-8-8-8-8-8-8------------------|
      ----1010101010101010-8-8-8-8-8-8-8-8-8-8-8-8-8-8-8-8-6-6-6-6-6-6-6-6--|
      -----8-8-8-8-8-8-8-8-8-8-8-8-8-8-8-8-6-6-6-6-6-6-6-6-6-6-6-6-6-6-6-6--|
      ---------------------6-6-6-6-6-6-6-6-----------------4-4-4-4-4-4-4-4--|
Comments