Offspring - Spare Me The Details Chords & Tabs

 

Spare Me The Details Chords & Tabs

Offspring Chords & Tabs

Version: 2 Type: Tab 0 ratings
1 star 2 stars 3 stars 4 stars 5 stars
comments

Spare Me The Details Tab

Album:Splinter
Song:Spare me the details
Track:10
Email:Greenday_rhcp2002@yahoo.co.uk
Tuning:Standard
..= PALM MUTE

Another great song.Listen to song for correct strumming/Timing..
simple to figure out.Rate please.

Main Acoustic guitar
e|---------------------------------------|
B|---------------------------------------|
G|--8--8--8---8--8--8--12-12-12-10-10-10-|
D|-10-10-10--10-10-10--12-12-12-10-10-10-|
A|-10-10-10--10-10-10--10-10-10--8--8--8-|
E|--8--8--8---8--8--8--------------------|
 

Verse...Electric Guitar(clean tone)
|--------------------------------------|
|--------------------------------------|
|--------------------------------------|
|--------------------12-12-12-10-10-10-|
|-10-10-10-10-10-10--10-10-10--8--8--8-|
|--8--8--8--8--8--8--------------------|
Pm .  .  .  .  .  .   .  .  .  .  .  .


The distortion part
|--------------------------------|
|--------------------------------|
|-10~----10-10-10-10-10-10-10-10-|
|-10~----10-10-10-10-10-10-10-10-|
|--8~-----8--8--8--8--8--8--8--8-|
|--------------------------------|
[ Tab from: http://www.guitartabs.cc/tabs/o/offspring/spare_me_the_details_tab_ver_2.html ]
|--------------------------------------------------|
|--------------------------------------------------|
|-10-10-10-10-10-10-10-10--12-12-12-12-12-12-12-12-|
|-10-10-10-10-10-10-10-10--12-12-12-12-12-12-12-12-|
|--8--8--8--8--8--8--8--8--10-10-10-10-10-10-10-10-|
|--------------------------------------------------|

|------------------------------------------|
|------------------------------------------|
|-8-8-8-8-8-8-8-8--------------------------|
|-8-8-8-8-8-8-8-8--10-10-10-10-10-10-10-10-|
|-6-6-6-6-6-6-6-6--10-10-10-10-10-10-10-10-|
|-------------------8--8--8--8--8--8--8--8-| x2

|----|
|----|
|-10-|
|-10-|
|--8-|
|----|x16


Outro Electric guitar (Distorted)
|---------------------------------------|
|---------------------------------------|
|--8--8--8---8--8--8--12-12-12-10-10-10-|
|-10-10-10--10-10-10--12-12-12-10-10-10-|
|-10-10-10--10-10-10--10-10-10--8--8--8-|
|--8--8--8---8--8--8--------------------|

End on
|-----|
|-----|
|-10~-|
|-10~-|
|--8~-|
|-----|


(This is the part played on a classical guitar)
|----------------------------|
|----------------------------|
|--------------12-------10---|
|----10------12--12---10--10-|
|--10--10--10--------8-------|
|-8--------------------------|


Its an easy song and easy to figure out the order.
Comments