Offspring - Something To Believe In Chords & Tabs

 

Something To Believe In Chords & Tabs

Offspring Chords & Tabs

Version: 2 Type: Tab 0 ratings
1 star 2 stars 3 stars 4 stars 5 stars
comments

Something To Believe In Tab

|---------------------------------------------------------------------------|
|               OFFSPRING : SOMETHING TO BELIVE IN                          |
|---------------------------------------------------------------------------|

BAND : OFFSPRING
SONG : SOMETHING TO BELIVE IN
ALBUM : SMASH

INTRO

E|-------------------------------|
B|-------------------------------|
G|--10---------5-888-3-10|10|10--|
D|--10-3-5-666-5-888-3-10|10|10--|  X 2
A|---8-3-5-666-3-666-1--8|-8|-8--|
E|-----1-3-444-------------------|

E|-----------------------------|
B|-----------------------------|
G|--------888------------------|
D|--6-666-888-8-888-333--------|    X 2
A|--6-666-666-8-888-333--------|
E|--4-444-----6-666-111--------|


VERSE

SAME AS OVER 7 TIMES

BRIDGE

SAME AS OVER 3 TIMES BUT PLAY IT----------- NOT - --- --- - --- --- HE HE!!
I DONT KNOW HOW TO EXPLAIN!!!!! JUST LOOK AT THE "SECOND" PART OF INTRO

E|--------------------|
B|--------------------|
G|------888-----------|
D|--666-888-666--888--| PLAY THIS IN THE END OF THE BRIDGE!!!!
A|--666-666-666--888--|
E|--444-----444--666--|

CHORUS
[ Tab from: http://www.guitartabs.cc/tabs/o/offspring/something_to_believe_in_tab_ver_2.html ]
E|------------------|
B|------------------|
G|--10|10|10---888--|     
D|--10|10|10-3-888--|     X 4
A|---8|-8|-8-3-666--|
E|------------------|

VERSE 

CHORUS

BRIDGE

"THE SLOW PART"

E|---------------------------------|
B|---------------------------------|
G|---------------------------------|  \\\\\\ = PRESS THE PIN ON YOUR GUITAR 
D|--3:---------3:\\\\\\\\\\\\\-----|           DOWN
A|--3:---------3:\\\\\\\\\\\\\-----|        : = LET IT RING
E|--1:---------1:\\\\\\\\\\\\\-----|

AFTER THIS IT'S BASS AND DRUMS THEN

BRIDGE

THE SAME AS THE INTRO, BUT DONT THE FIRST E|------|
                                          B|------|
                                          G|--10--|
                                          D|--10--|
                                          A|---8--|
                                          E|------|

THEN THE CHORUS AND THE END. THE END IS JUST LIKE THE "SECOND" PART OF INTRO!!!
THAT'S IT. I HOPE YOU LIKE IT.. 
I'VE ALSO TABBED: OFFSPRING ONE FINE DAY (SOLO) THAT ONE IS WRONG
AND ONE FINE DAY TAB THE (LAST ONE I THINK)
IF YOU WANT TO SAY SOMETHING ABOUT THE TAB, PLEASE WRITE TO: JOACHIMCARLSEN@HOTMAIL.COM
Comments