Offspring - Smash Chords & Tabs

 

Smash Chords & Tabs

Offspring Chords & Tabs

Version: 5 Type: Tab 0 ratings
1 star 2 stars 3 stars 4 stars 5 stars
comments

Smash Tab

   
-------------------------------------------------------------------------------
			     SMASH - The Offspring
-------------------------------------------------------------------------------
Tabbed by: ygokazuki
Email: ygokazuki@gmail.com

Tuning: Standard - E B G D A E

There are two ways of playing the verse - Proper and Simplified.
I've tabbed them both for the heck of it.  Enjoy!

------------------------------------------------------------------------
									|
"Verse - Proper Way"							|
Verse pt. 1 (x2)							|
e|-----------------------------------------------|			|
B|-----------------------------------------------|			|
G|-10-10-10-10-----------------------------------|			|
D|-10-10-10-10-10-11-11--6-8-8-x-8-x-8-x-8-10-10-|			|
A|--8--8--8--8-10-11-11--6-8-8-x-8-x-8-x-8-10-10-|			|
E|--------------8--9--9--4-6-6-x-6-x-6-x-6--8--8-|			|
									|
Verse pt. 2 (x2)							|
e|----------------------------------------------------|			|
B|----------------------------------------------------|			|
G|-10---------10--------------------------------------|			|
D|-10---------10---------10-----11---------11---------|			|
A|--8-8-8-8-8--8-8-8-8-8-10-----11---------11---------|			|
E|------------------------8-8-8--9-9-9-9-9--9-9-9-9-9-|			|
pm    X X X X    X X X X    X X    X X X X    X X X X			|
									|
e|--------------------------------------------------------------|	|
B|--------------------------------------------------------------|	|
G|--------------------------------------------------------------|	|
D|-6-----8---------8---------8-----10---------10---------10-----|	|
A|-6-----8---------8---------8-----10---------10---------10-----|	|
E|-4-4-4-6-6-6-6-6-6-6-6-6-6-6-6-6--8-8-8-8-8--8-8-8-8-8--8-8-8-|	|
pm   X X   X X X X   X X x X   X X    X X X X    X X X X    X X		|
									|
------------------------------------------------------------------------	
[ Tab from: http://www.guitartabs.cc/tabs/o/offspring/smash_tab_ver_5.html ]
------------------------------------------------------------------------
									|
"Verse - Simplified Way"						|
Verse pt. 1 (x2)							|
e|--------------------------------------|				|
B|--------------------------------------|				|
G|-5-5-5-5------------------------------|				|
D|-3-3-3-3-5-6-6----3-3-x-3-x-3-x-3-5-5-|				|
A|---------3-4-4--6-1-1-x-1-x-1-x-1-3-3-|				|
E|----------------4---------------------|				|
									|
Verse pt. 2 (x2)							|
e|-----------------------------------------------------|		|
B|-----------------------------------------------------|		|
G|-5---------5-----------------------------------------|		|
D|-3-3-3-3-3-3-3-3-3-3-5-----6---------6---------------|		|
A|---------------------3-3-3-4-4-4-4-4-4-4-4-4-4-6-----|		|
E|-----------------------------------------------4-4-4-|		|
pm   X X X X   X X X X   X X   X X X X   X X X X   X X			|
									|
e|-----------------------------------------------------|		|
B|-----------------------------------------------------|		|
G|-----------------------------------------------------|		|
D|---------------------------5---------5---------5-----|		|
A|-8---------8---------8-----3-3-3-3-3-3-3-3-3-3-3-3-3-|		|
E|-6-6-6-6-6-6-6-6-6-6-6-6-6---------------------------|		|
pm   X X X X   X X X X   X X   X X X X   X X X X   X X			|
									|
------------------------------------------------------------------------

------------------------------------------------------------------------
									|
"Chorus"								|
Chorus pt. 1								|
e|----------------------------------------------------------|		|
B|---------------8-8--8-8-8-8--6-6--6-6-6-6--6-6--6-6-6/8-8-|		|
G|-5-5--5-5-5-5--8-8--8-8-8-8--6-6--6-6-6-6--6-6--6-6-6/8-8-|		|
D|-6-6--6-6-6-6--8-8--8-8-8-8--6-6--6-6-6-6--6-6--6-6-6/8-8-|		|
A|-6-6--6-6-6-6--6-6--6-6-6-6--4-4--4-4-4-4--4-4--4-4-4/6-6-|		|
E|-4-4--4-4-4-4---------------------------------------------|		|
									|
Chorus pt. 2								|
e|--------------------------------------------------------|		|
B|---------------8-8--8-8-8-8--6-6--6-6-6-6--5-5--5-5-5-5-|		|
G|-5-5--5-5-5-5--8-8--8-8-8-8--6-6--6-6-6-6--5-5--5-5-5-5-|		|
D|-6-6--6-6-6-6--8-8--8-8-8-8--6-6--6-6-6-6--5-5--5-5-5-5-|		|
A|-6-6--6-6-6-6--6-6--6-6-6-6--4-4--4-4-4-4--3-3--3-3-3-3-|		|
E|-4-4--4-4-4-4-------------------------------------------|		|
									|
If that's to much for you, strum the bottom 3 strings only.		|
------------------------------------------------------------------------

------------------------------------------------------------------------
									|
"Post - Chorus Riff" (x4)						|
e|-------------------|							|
B|-------------------|							|
G|-------------------|							|
D|-------------------|							|
A|-----3-3-4-4-3-----|							|
E|-1-1-----------4-3-|							|
									|
------------------------------------------------------------------------

Repeat Verse, Chorus,and Post - Chorus Riff

------------------------------------------------------------------------
									|
Bridge (x4) (Play Post - Chorus Riff under)				|
e|--------------------------------|					|
B|--------------------------------|					|
G|--------------------------------|					|
D|---6-6:--5-5:--3-3:--5-5:--5-5:-|					|
A|---8-8:--6-6:--4-4:--6-6:--7-7:-|					|
E|-1------------------------------|					|
									|
------------------------------------------------------------------------

Repeat Chorus x2, the second time slower and without distortion.

Have fun with that now!

| /  slide up
| \  slide down
| h  hammer-on
| p  pull-off
| ~  vibrato
| +  harmonic
| x  Mute note
===============================================================================
Comments