Offspring - Smash Chords & Tabs

 

Smash Chords & Tabs

Offspring Chords & Tabs

Version: 3 Type: Tab 0 ratings
1 star 2 stars 3 stars 4 stars 5 stars
comments

Smash Tab

Music and lyrics for SMASH by OFFSPRING (SMASH)

Tab by alexm@smug.student.adelaide.edu.au
Any major problems or constructive criticism mail me or flame me.


Ryth fig 1

e  ------------------------     String setup is same
B  ------------------------     for all other ryths 
G  -10----------------8--9-     and riffs
D  -10--10--11--6--8--8--9-
A  --8---8--11--6--8--6--7-
E  ------8---8--4--6-------

Ryth fig 2               Ryth fig 6

----------------------   ---------------------------                 
-10--8--6--8--9-------   --10---8---6----------9---- 
-10--8--6--8--9-------   --10---8---6---8--10--9----
-10--8--6--8--9-------   --10---8---6---8--10--7----
--8--6--4--6--7-------   ---8---6---4---6---8-------
----------------------   ---------------------------

Ryth fig 3               Ryth fig 4              Ryth fig 5

-----------------------  ----------------------  ----------------------
-----------------------  ----------------------  ----------------------
-10--8--6--10--8--10---  ---10---8---6---------  ---8---9---10---------
-10--8--6--10--8--10---  ---10---8---6---------  ---8---9---10---------
--8--6--4---8--6---8---  ----8---6---4---------  ---6---7----8---------
-----------------------  ----------------------  ----------------------

Riff fig 1
[ Tab from: http://www.guitartabs.cc/tabs/o/offspring/smash_tab_ver_3.html ]
D  -----10--11--10--8-----------
A  --8-----------------11-------
E  -----------------------------


Riff fig 2

D  --------10--10--11--11--10--8--------
A  --8--8-------------------------11----
E  -------------------------------------


Final strum

G  ----10------------------
D  ----10------------------
A  -----8------------------
E  ------------------------

play system is as follows.

Ryth  | 1 1 1 1 / 3 4 5 5 5 5 / 1 1 1 1 / 3 4 5       / 2       2        6 / 1 1 / 3 4 5 3 4 5 5 5
Fig                   1 1 1 1 /               1 1 1 1 /   2  2  2  2  2                      1 1 1


Lyrics

Head over heals I,ve fit in before
Now I don't want to do it no more
I,ve held it all in with blood on my face
Built it up man so bad you can taste
I don't slag no one 
I don't even judge
Don't give a shit cause I'm not gonna budge 
I just want to be who I want to be
Guess That's hard for others to see

I'm not a trendy asshole
I do what I want 
I do what I feel like
I'm not a trendy asshole
Don't give a fuck is it's good enough for you
Cause I'm alive

Smash is the way you feel all alone
Like an outcast you're out on your own
Smash is the way you deal with your life
Like an outcast you're smashing your strife

Head over heals I've fit in before
Now I don't want to do it no more
I just want to be who I want to be
Guess That's hard for others to see

Comments