Offspring - Smash It Up Chords & Tabs

 

Smash It Up Chords & Tabs

Offspring Chords & Tabs

Version: 3 Type: Tab

Smash It Up Tab

   
-------------------------------------------------------------------------------
			      Smash it up - The Offspring 
-------------------------------------------------------------------------------
Tabbed by: Ryan Armstrong
Email:

This is the offsprings cover of the dammed song i think the solos right but maybe
not enjoy.

Tuning: Standard

  Intro
e|-0--2--0--0--0--2--0--0--0-------------------------------------------|
B|-0--0--3--2--0--0--3--2--0-------------------------------------------|
G|-0--0--0--0--0--0--0--0--0-------------------------------------------|
D|-2--2--2--2--2--2--2--2--2-------------------------------------------|
A|-2--2--2--2--2--2--2--2--2-2-2-2-2-2-2-2-2-2-2-2-2-2-2-2-2-2-2-2-2-2-|
E|-0--0--0--0--0--0--0--0--0-0-0-0-0-0-0-0-0-0-0-0-0-0-0-0-0-0-0-0-0-0-|
  Continued
e|-3-3-3-2-2-2-0-0-0-0-0-0-|
B|-0-0-0-3-3-3-0-0-0-0-0-0-|Play 
G|-0-0-0-2-2-2-0-0-0-0-0-0-| x4
D|-0-0-0-0-0-0-2-2-2-2-2-2-|
A|-2-2-2-------2-2-2-2-2-2-|
E|-3-3-3-------0-0-0-0-0-0-|
[ Tab from: http://www.guitartabs.cc/tabs/o/offspring/smash_it_up_tab_ver_3.html ]
e|-----------------------------------------------|
B|-----------------------------------------------|
G|-----------------------------------------------|Play 
D|-5-5-3-3-3-3-7-7-3-3-3-3-7-7-3-3-3-3-5-5-5-5-5-| x2
A|-5-5-3-3-3-3-7-7-3-3-3-3-7-7-3-3-3-3-5-5-5-5-5-| 
e|-3-3-1-1-1-1-5-5-1-1-1-1-5-5-1-1-1-1-3-3-3-3-3-|
  Solo
e|-------------------------------------------------------|
B|-------------------------------------------------------|
G|-------------------------------------------------------|
D|-----3-5-----3-5-------55/7-----55/7-----55/7-5---5----|
A|-3-5-----3-5-------5-7------5-7------5-7--------7---7\-|
E|-------------------------------------------------------|
  Verse
e|---------------------------------------------------------------------|
B|---------------------------------------------------------------------|
G|---------------------------------------------------------------------|
D|-----------------5-5-5-5-5-5-5-5-5-5-5-5-5---------------------------|
A|-5-5-5-5-5-5-5-5-3-3-3-3-3-3-3-3-3-3-3-3-3-5-5-5-5-5-5-5-5-5-5-5-5-5-|
E|-3-3-3-3-3-3-3-3---------------------------3-3-3-3-3-3-3-3-3-3-3-3-3-|
  Continued
e|-----------------------------------------------------|
B|-----------------------------------------------------|listen to the song  
G|-----------------------------------------------------|to get the timeing 
D|-5-5-5-5-5-5-5-5-5-5-5-5-5---------------------------|right
A|-3-3-3-3-3-3-3-3-3-3-3-3-3-5-5-5-5-5-5-5-5-5-5-5-5-5-|
E|---------------------------3-3-3-3-3-3-3-3-3-3-3-3-3-|
  Chorus
e|-----------------------------------------------|
B|-----------------------------------------------|
G|-----------------------------------------------|Play 
D|-5-5-3-3-3-3-7-7-3-3-3-3-7-7-3-3-3-3-5-5-5-5-5-| x2
A|-5-5-3-3-3-3-7-7-3-3-3-3-7-7-3-3-3-3-5-5-5-5-5-| 
e|-3-3-1-1-1-1-5-5-1-1-1-1-5-5-1-1-1-1-3-3-3-3-3-|
  Solo
e|-------------------------------------------------------|
B|-------------------------------------------------------|
G|-------------------------------------------------------|
D|-----3-5-----3-5-------55/7-----55/7-----55/7-5---5----|
A|-3-5-----3-5-------5-7------5-7------5-7--------7---7\-|
E|-------------------------------------------------------|
  Verse
e|---------------------------------------------------------------------|
B|---------------------------------------------------------------------|
G|---------------------------------------------------------------------|
D|-----------------5-5-5-5-5-5-5-5-5-5-5-5-5---------------------------|
A|-5-5-5-5-5-5-5-5-3-3-3-3-3-3-3-3-3-3-3-3-3-5-5-5-5-5-5-5-5-5-5-5-5-5-|
E|-3-3-3-3-3-3-3-3---------------------------3-3-3-3-3-3-3-3-3-3-3-3-3-|
  Continued
e|-----------------------------------------------------|
B|-----------------------------------------------------|listen to the song  
G|-----------------------------------------------------|to get the timeing 
D|-5-5-5-5-5-5-5-5-5-5-5-5-5---------------------------|right
A|-3-3-3-3-3-3-3-3-3-3-3-3-3-5-5-5-5-5-5-5-5-5-5-5-5-5-|
E|---------------------------3-3-3-3-3-3-3-3-3-3-3-3-3-|
  Chorus
e|-----------------------------------------------|
B|-----------------------------------------------|
G|-----------------------------------------------|Play 
D|-5-5-3-3-3-3-7-7-3-3-3-3-7-7-3-3-3-3-5-5-5-5-5-| x2
A|-5-5-3-3-3-3-7-7-3-3-3-3-7-7-3-3-3-3-5-5-5-5-5-| 
e|-3-3-1-1-1-1-5-5-1-1-1-1-5-5-1-1-1-1-3-3-3-3-3-|
  Solo
e|-------------------------------------------------------|
B|-------------------------------------------------------|
G|-------------------------------------------------------|
D|-----3-5-----3-5-------55/7-----55/7-----55/7-5---5----|
A|-3-5-----3-5-------5-7------5-7------5-7--------7---7\-|
E|-------------------------------------------------------|
  Chorus continued Bothe guitars
e|-------------------------------------------------------------------|
B|-------------------------------------------------------------------|
G|-5-5-5-5-4-4-4-4-7-7-7-7---------5-5-5-5-4-4-4-4-4/7-7-7-7-7-7-7-7-|
D|-5-5-5-5-4-4-4-4-7-7-7-7-5-5-5-5-5-5-5-5-4-4-4-4-4/7-7-7-7-7-7-7-7-|
A|-3-3-3-3-2-2-2-2-5-5-5-5-5-5-5-5-3-3-3-3-2-2-2-2-2/5-5-5-5-5-5-5-5-|
E|-------------------------3-3-3-3-----------------------------------|
 Continued
e|---|
B|---|
G|---|
D|-2-|
A|-2-|
e|-0-|
  Solo
e|--------------------------------------------|
B|--------------------------------------------|
G|-7-7-7/9---9-0-0-12-0-0-9-0-0-12-0-0-9-0-12-|
D|--------------------------------------------|
A|--------------------------------------------|
E|--------------------------------------------|
  Continued
e|-------------------------------|
B|-12-15-12-15-12-15-12-15-12-15-|
G|-------------------------------|
D|-------------------------------|
A|-------------------------------|
E|-------------------------------|
  Bridge
e|---------------------|
B|---------------------|play
G|---------------9-9-9-| x4
D|-4-4-4-4-4-7-7-9-9-9-|
A|-4-4-4-4-4-7-7-7-7-7-|
E|-2-2-2-2-2-5-5-------|
  Continued
e|---------------------------------------|
B|---------------------------------------|
G|---------------------------------------|
D|-9-----------9-----------9-----------9-|
A|-9---9-9-9-9-9---9-9-9-9-9---9-9-9-9-9-|
E|-7---7-7-7-7-7---7-7-7-7-7---7-7-7-7-7-|
  Verse
e|---------------------------------------------------------------------|
B|---------------------------------------------------------------------|
G|---------------------------------------------------------------------|
D|-----------------5-5-5-5-5-5-5-5-5-5-5-5-5---------------------------|
A|-5-5-5-5-5-5-5-5-3-3-3-3-3-3-3-3-3-3-3-3-3-5-5-5-5-5-5-5-5-5-5-5-5-5-|
E|-3-3-3-3-3-3-3-3---------------------------3-3-3-3-3-3-3-3-3-3-3-3-3-|
  Continued
e|-----------------------------------------------------|
B|-----------------------------------------------------|listen to the song to 
G|-----------------------------------------------------|get the timeing right
D|-5-5-5-5-5-5-5-5-5-5-5-5-5---------------------------|
A|-3-3-3-3-3-3-3-3-3-3-3-3-3-5-5-5-5-5-5-5-5-5-5-5-5-5-|
E|---------------------------3-3-3-3-3-3-3-3-3-3-3-3-3-|
 Chorus
e|-----------------------------------------------|
B|-----------------------------------------------|
G|-----------------------------------------------|Play 
D|-5-5-3-3-3-3-7-7-3-3-3-3-7-7-3-3-3-3-5-5-5-5-5-| x2
A|-5-5-3-3-3-3-7-7-3-3-3-3-7-7-3-3-3-3-5-5-5-5-5-| 
e|-3-3-1-1-1-1-5-5-1-1-1-1-5-5-1-1-1-1-3-3-3-3-3-|
  Solo
e|-------------------------------------------------------|
B|-------------------------------------------------------|
G|-------------------------------------------------------|
D|-----3-5-----3-5-------55/7-----55/7-----55/7-5---5----|
A|-3-5-----3-5-------5-7------5-7------5-7--------7---7\-|
E|-------------------------------------------------------|
  Chorus continued Bothe guitars
e|-------------------------------------------------------------------|
B|-------------------------------------------------------------------|
G|-5-5-5-5-4-4-4-4-7-7-7-7---------5-5-5-5-4-4-4-4-4/7-7-7-7-7-7-7-7-|
D|-5-5-5-5-4-4-4-4-7-7-7-7-5-5-5-5-5-5-5-5-4-4-4-4-4/7-7-7-7-7-7-7-7-|
A|-3-3-3-3-2-2-2-2-5-5-5-5-5-5-5-5-3-3-3-3-2-2-2-2-2/5-5-5-5-5-5-5-5-|
E|-------------------------3-3-3-3-----------------------------------|
  Outro
e|---------------------------------------------------------------|
B|---------------------------------------------------------------|
G|---------5-5-5-5-------------------------5-5-5-5---------5-----|
D|-3-3-3-3-5-5-5-5-5-5-5-5-5-5-5-3-3-3-3-5-5-5-5-5-5---3---5---5-|
A|-3-3-3-3-3-3-3-3-5-5-5-5-5-5-5-5-3-3-3-3-3-3-3-3-5---3---3---5-|
E|-1-1-1-1---------3-3-3-3-3-3-3-3-1-1-1-1---------3---1-------3-|

Thats it, its a fun one so i'll see ya later.

| /  slide up
| \  slide down
| h  hammer-on
| p  pull-off
| ~  vibrato
| +  harmonic
| x  Mute note
===============================================================================