Offspring - Slim Pickens Does The Right Thing And Rides The Bomb To Hell Chords & Tabs

 

Offspring Chords & Tabs

Version: 1 Type: Tab 0 ratings
1 star 2 stars 3 stars 4 stars 5 stars
comments

Slim Pickens Does The Right Thing And Rides The Bomb To Hell Tab

   
-------------------------------------------------------------------------------
Slim Pickens Does The Right Thing And Rides The Bomb To Hell  The Offspring
-------------------------------------------------------------------------------
Tabbed by: Brian Wells
E-mail:

Tuning: Standard
  Intro
e|---------------------------------------------------------------------------|
B|---------------------------------------------------------------------------|
G|-7-7-7-7-3-3-3-3-10-10-10-10-5-5-5-5--7-7-7-7-3-3-3-3-10-10-10-10-5-5-5-5--|
D|-7-7-7-7-3-3-3-3-10-10-10-10-5-5-5-5--7-7-7-7-3-3-3-3-10-10-10-10-5-5-5-5--|
A|-5-5-5-5-1-1-1-1--8--8--8--8-3-3-3-3--5-5-5-5-1-1-1-1--8--8--8--8-3-3-3-3--|
E|---------------------------------------------------------------------------|

  Verse
e|---------------------------------------------------------------------------|
B|---------------------------------------------------------------------------|
G|-7-7-7-7-3-3-3-3-10-10-10-10-5-5-5-5--7-7-7-7-3-3-3-3-10-10-10-10-5-5-5-5--|
D|-7-7-7-7-3-3-3-3-10-10-10-10-5-5-5-5--7-7-7-7-3-3-3-3-10-10-10-10-5-5-5-5--|
A|-5-5-5-5-1-1-1-1--8--8--8--8-3-3-3-3--5-5-5-5-1-1-1-1--8--8--8--8-3-3-3-3--|
E|---------------------------------------------------------------------------|
   x x x x x x x x  x  x  x  x x x x x  x x x x x x x x  x  x  x  x x x x x 

e|---------------------------------------------------------------------------|
B|---------------------------------------------------------------------------|
G|-7-7-7-7-3-3-3-3-10-10-10-10-5-5-5-5--7-7-7-7-3-3-3-3-10-10-10-10-5--------|
D|-7-7-7-7-3-3-3-3-10-10-10-10-5-5-5-5--7-7-7-7-3-3-3-3-10-10-10-10-5--------|
A|-5-5-5-5-1-1-1-1--8--8--8--8-3-3-3-3--5-5-5-5-1-1-1-1--8--8--8--8-3--------|
E|---------------------------------------------------------------------------|
   x x x x x x x x  x  x  x  x x x x x  x x x x x x x x  x  x  x  x  

Chorus
e|---------------------------------------------------------------------------|
B|---------------------------------------------------------------------------|
G|-7-7-7-7-3-3-3-3-10-10-10-10-5-5-5-5--7-7-7-7-3-3-3-3-10-10-10-10-5-5-5-5--|
D|-7-7-7-7-3-3-3-3-10-10-10-10-5-5-5-5--7-7-7-7-3-3-3-3-10-10-10-10-5-5-5-5--|
A|-5-5-5-5-1-1-1-1--8--8--8--8-3-3-3-3--5-5-5-5-1-1-1-1--8--8--8--8-3-3-3-3--|
E|---------------------------------------------------------------------------|

e|---------------------------------------------------------------------------|
B|---------------------------------------------------------------------------|
G|-7-7-7-7-3-3-3-3-10-10-10-10-5-5-5-5-3-------------------------------------|
D|-7-7-7-7-3-3-3-3-10-10-10-10-5-5-5-5-3-------------------------------------|
A|-5-5-5-5-1-1-1-1--8--8--8--8-3-3-3-3-1-------------------------------------|
E|---------------------------------------------------------------------------|


e|---------------------------------------------------------------------------|
B|---------------------------------------------------------------------------|
G|-3-3-3-3-3-3-3-3/5-5-5-5-5-5-5-5-3-3-3-3-3-3-3-3/5-5-5-5-5-5-5-5-----------|
D|-3-3-3-3-3-3-3-3/5-5-5-5-5-5-5-5-3-3-3-3-3-3-3-3/5-5-5-5-5-5-5-5-----------|
A|-1-1-1-1-1-1-1-1/3-3-3-3-3-3-3-3-1-1-1-1-1-1-1-1/5-5-5-5-5-5-5-5-----------|
E|---------------------------------------------------------------------------|
   x x x x x x x x x x x x x x x x x x x x x x x x x x x x x x x x 

e|---------------------------------------------------------------------------|
B|---------------------------------------------------------------------------|
G|-3-3-3-3-3-3-3-3/5-5-5-5-5-5-5-5--7-7-5-5-7-7-5-5-7-7-5-5-7----------------|
D|-3-3-3-3-3-3-3-3/5-5-5-5-5-5-5-5--7-7-5-5-7-7-5-5-7-7-5-5-7----------------|
A|-1-1-1-1-1-1-1-1/3-3-3-3-3-3-3-3--5-5-3-3-5-5-3-3-5-5-3-3-5----------------|
E|---------------------------------------------------------------------------|
   x x x x x x x x x x x x

  Verse
e|---------------------------------------------------------------------------|
B|---------------------------------------------------------------------------|
G|-7-7-7-7-3-3-3-3-10-10-10-10-5-5-5-5--7-7-7-7-3-3-3-3-10-10-10-10-5-5-5-5--|
D|-7-7-7-7-3-3-3-3-10-10-10-10-5-5-5-5--7-7-7-7-3-3-3-3-10-10-10-10-5-5-5-5--|x2
A|-5-5-5-5-1-1-1-1--8--8--8--8-3-3-3-3--5-5-5-5-1-1-1-1--8--8--8--8-3-3-3-3--|
E|---------------------------------------------------------------------------|

e|---------------------------------------------------------------------------|
B|---------------------------------------------------------------------------|
G|-7-7-7-7-3-3-3-3-10-10-10-10-5-5-5-5--7-7-7-7-3-3-3-3-10-10-10-10-5-5-5-5--|
D|-7-7-7-7-3-3-3-3-10-10-10-10-5-5-5-5--7-7-7-7-3-3-3-3-10-10-10-10-5-5-5-5--|x2
A|-5-5-5-5-1-1-1-1--8--8--8--8-3-3-3-3--5-5-5-5-1-1-1-1--8--8--8--8-3-3-3-3--|
E|---------------------------------------------------------------------------|
   x x x x x x x x  x  x  x  x x x x x  x x x x x x x x  x  x  x  x x x x x 

  Bridge
e|---------------------------------------------------------------------------|
B|---------------------------------------------------------------------------|
G|---------------------------------------------------------------------------|
D|-5-5-5-5-5-5-5-5-5-5-5-5-5-5-5-5-8-8-8-8-8-8-8-8-10-10-10-10-x-x-x-x-------|
A|-5-5-5-5-5-5-5-5-5-5-5-5-5-5-5-5-8-8-8-8-8-8-8-8-10-10-10-10-x-x-x-x-------|
E|-3-3-3-3-3-3-3-3-3-3-3-3-3-3-3-3-6-6-6-6-6-6-6-6--8--8--8--8-x-x-x-x-------|
[ Tab from: http://www.guitartabs.cc/tabs/o/offspring/slim_pickens_does_the_right_thing_and_rides_the_bomb_to_hell_tab.html ]
Chorus
e|---------------------------------------------------------------------------|
B|---------------------------------------------------------------------------|
G|-7-7-7-7-3-3-3-3-10-10-10-10-5-5-5-5--7-7-7-7-3-3-3-3-10-10-10-10-5-5-5-5--|
D|-7-7-7-7-3-3-3-3-10-10-10-10-5-5-5-5--7-7-7-7-3-3-3-3-10-10-10-10-5-5-5-5--|
A|-5-5-5-5-1-1-1-1--8--8--8--8-3-3-3-3--5-5-5-5-1-1-1-1--8--8--8--8-3-3-3-3--|
E|---------------------------------------------------------------------------|

e|---------------------------------------------------------------------------|
B|---------------------------------------------------------------------------|
G|-7-7-7-7-3-3-3-3-10-10-10-10-5-5-5-5-3-------------------------------------|
D|-7-7-7-7-3-3-3-3-10-10-10-10-5-5-5-5-3-------------------------------------|
A|-5-5-5-5-1-1-1-1--8--8--8--8-3-3-3-3-1-------------------------------------|
E|---------------------------------------------------------------------------|

e|---------------------------------------------------------------------------|
B|---------------------------------------------------------------------------|
G|-3-3-3-3-3-3-3-3/5-5-5-5-5-5-5-5-3-3-3-3-3-3-3-3/5-5-5-5-5-5-5-5-----------|
D|-3-3-3-3-3-3-3-3/5-5-5-5-5-5-5-5-3-3-3-3-3-3-3-3/5-5-5-5-5-5-5-5-----------|
A|-1-1-1-1-1-1-1-1/3-3-3-3-3-3-3-3-1-1-1-1-1-1-1-1/3-3-3-3-3-3-3-3-----------|
E|---------------------------------------------------------------------------|
   x x x x x x x x x x x x x x x x x x x x x x x x x x x x x x x x 

e|---------------------------------------------------------------------------|
B|---------------------------------------------------------------------------|
G|-3-3-3-3-3-3-3-3/5-5-5-5-5-5-5-5--7-7-5-5-7-7-5-5-7-7-5-5-7----------------|
D|-3-3-3-3-3-3-3-3/5-5-5-5-5-5-5-5--7-7-5-5-7-7-5-5-7-7-5-5-7----------------|
A|-1-1-1-1-1-1-1-1/3-3-3-3-3-3-3-3--5-5-3-3-5-5-3-3-5-5-3-3-5----------------|
E|---------------------------------------------------------------------------|
   x x x x x x x x x x x x

Guitar Solo
Guitar 1
e|---------------------------------------------------------------------------|
B|---------------------------------------------------------------------------|
G|-7--7-5-7--7-8-9--10-12-9-9/10\9-7-5-7--5-7-9/10\9-7-5-7-------------------|
D|---------------------------------------------------------------------------|x2
A|---------------------------------------------------------------------------|
E|---------------------------------------------------------------------------|
Guitar 2
e|---------------------------------------------------------------------------|
B|---------------------------------------------------------------------------|
G|-7-7-7-7-3-3-3-3-10-10-10-10-5-5-5-5--7-7-7-7-3-3-3-3-10-10-10-10-5-5-5-5--|
D|-7-7-7-7-3-3-3-3-10-10-10-10-5-5-5-5--7-7-7-7-3-3-3-3-10-10-10-10-5-5-5-5--|x2
A|-5-5-5-5-1-1-1-1--8--8--8--8-3-3-3-3--5-5-5-5-1-1-1-1--8--8--8--8-3-3-3-3--|
E|---------------------------------------------------------------------------|


e|---------------------------------------------------------------------------|
B|---------------------------------------------------------------------------|
G|---------------------------------------------------------------------------|
D|-5-5-5-5-5-5-5-5-5-5-5-5-5-5-5-5-8-8-8-8-8-8-8-8-10-10-10-10-x-x-x-x-------|
A|-5-5-5-5-5-5-5-5-5-5-5-5-5-5-5-5-8-8-8-8-8-8-8-8-10-10-10-10-x-x-x-x-------|
E|-3-3-3-3-3-3-3-3-3-3-3-3-3-3-3-3-6-6-6-6-6-6-6-6--8--8--8--8-x-x-x-x-------|

  Chorus
e|---------------------------------------------------------------------------|
B|---------------------------------------------------------------------------|
G|-7-7-7-7-3-3-3-3-10-10-10-10-5-5-5-5--7-7-7-7-3-3-3-3-10-10-10-10-5-5-5-5--|
D|-7-7-7-7-3-3-3-3-10-10-10-10-5-5-5-5--7-7-7-7-3-3-3-3-10-10-10-10-5-5-5-5--|x3
A|-5-5-5-5-1-1-1-1--8--8--8--8-3-3-3-3--5-5-5-5-1-1-1-1--8--8--8--8-3-3-3-3--|
E|---------------------------------------------------------------------------|

e|---------------------------------------------------------------------------|
B|---------------------------------------------------------------------------|
G|-3-3-3-3-3-3-3-3/5-5-5-5-5-5-5-5-3-3-3-3-3-3-3-3/5-5-5-5-5-5-5-5-----------|
D|-3-3-3-3-3-3-3-3/5-5-5-5-5-5-5-5-3-3-3-3-3-3-3-3/5-5-5-5-5-5-5-5-----------|
A|-1-1-1-1-1-1-1-1/3-3-3-3-3-3-3-3-1-1-1-1-1-1-1-1/3-3-3-3-3-3-3-3-----------|
E|---------------------------------------------------------------------------|
   x x x x x x x x x x x x x x x x x x x x x x x x x x x x x x x x 

e|---------------------------------|
B|---------------------------------|
G|-3-3-3-3-3-3-3-3/5-5-5-5-5-5-5-5-|
D|-3-3-3-3-3-3-3-3/5-5-5-5-5-5-5-5-|
A|-1-1-1-1-1-1-1-1/3-3-3-3-3-3-3-3-|
E|---------------------------------|
   x x x x x x x x x x x x

  Outro
e|---------------------------------------------------------------------------|
B|---------------------------------------------------------------------------|
G|-7-7-7-7-7-7-7-5-7-7-7-7-7-7-7-5-7-7-7-7-7-7-7-5-7-7-7-7-7-----------------|
D|-7-7-7-7-7-7-7-5-7-7-7-7-7-7-7-5-7-7-7-7-7-7-7-5-7-7-7-7-7-----------------|
A|-5-5-5-5-5-5-5-3-5-5-5-5-5-5-5-3-5-5-5-5-5-5-5-3-5-5-5-5-5-----------------|
E|---------------------------------------------------------------------------|

NOTE: 
Throughout the song, these chords:
e|--------|
B|--------|
G|-3----5-|
D|-3----5-|
A|-1----3-|
E|--------|
Can be also be played like this
e|--------|
B|--------|
G|--------|
D|-8---10-|
A|-8---10-|
E|-6----8-|
I just find it easier to move between chords the way I have it throughout the tab



************************************

| /   slide up
| \   slide down
| h   hammer-on
| p   pull-off
| ~   vibrato
| +   harmonic
| x   Mute note
| b   Bend
| pb  Pre-bend
| br  Bend release
| pbr Pre-bend release
| brb Bend release bend

************************************
Comments