Offspring - Shes Got Issues Chords & Tabs

 

Shes Got Issues Chords & Tabs

Offspring Chords & Tabs

Version: 6 Type: Tab 0 ratings
1 star 2 stars 3 stars 4 stars 5 stars
comments

Shes Got Issues Tab

   
Ahmed Al Hilali
fortific@yahoo.com

=   = Allow to ring/Hammer-on/Pull-off/Slide/Glissando
X   = Mute
PM  = Palm Mute
<7> = Natural Harmonic

Intro:

  E5  PM....................
e|-----------------|-----------------|
B|-----------------|-----------------|
G|-9=9-------------|-9-9-9-9-9-9-9-9-|
D|-9=9-9-9-9-9-9-9-|-9-9-9-9-9-9-9-9-|
A|-7=7-7-7-7-7-7-7-|-7-7-7-7-7-7-7-7-|
E|-----------------|-----------------|
 |
 |E5  PM....................
e|-----------------|-----------------|
B|-----------------|-----------------|
G|-9=9-------------|-9-9-9-9-9-9-9-9-|
D|-9=9-9-9-9-9-9-9-|-9-9-9-9-9-9-9-9-|
A|-7=7-7-7-7-7-7-7-|-7-7-7-7-7-7-7-7-|
E|-----------------|-----------------|

Verse 1:
Guitar 2 goes rest during the first 4 bars
Part 1
           PM.          
e|-----------------|-----------------|
B|-----------------|-----------------|
G|-9-9---------9---|-4-4-------4-4-6-|
D|-9-9-------9-9---|-4-4-------4-4-6-|
A|-7-7-------7-7---|-2-2-------2-2-4-|
E|-----------------|-----------------|
 |
                             PM.
e|-----------------|-----------------|
B|-----------------|-----------------|
G|-7-7-------7-7-9-|-----------------|
D|-7-7-------7-7-9-|-7-7---------7---|
A|-5-5-------5-5-7-|-7-7-------7-7---|
E|-----------------|-5-5-------5-5---|
 |

Part 2
   E5                B5
e|-----------------|-----------------|
B|-----------------|-----------------|
G|-9-9---------9---|-4-4-------4-4-6-|
D|-9-9-------9-9---|-4-4-------4-4-6-|
A|-7-7-------7-7---|-2-2-------2-2-4-|
E|-----------------|-----------------|
 | E                 B
e|---------4-------|-----------------|
B|-----5-----5-----|---------4-------|
G|---4---4---------|-----4-----4-----|
D|-----------------|---4---4---------|
A|-----------------|-----------------|
E|-----------------|-----------------|


e|-----------------|-----------------|
B|-----------------|-----------------|
G|-7-7-------7-7-9-|-----------------|
D|-7-7-------7-7-9-|-7-7---------7---|
A|-5-5-------5-5-7-|-7-7-------7-7---|
E|-----------------|-5-5-------5-5---|
 |
 |
e|---------2-------|-------------4---|
B|-----4-----4-----|---------2-----5-|
G|---2---2---------|-----2-----2-----|
D|-----------------|---2---2---------|
A|-----------------|-----------------|
E|-----------------|-----------------|


Verse 2:
Singing part
   E5                B5
e|-----------------|-----------------|
B|-----------------|-----------------|
G|-9-9-------------|-----------------|
D|-9-9-------------|-----------------|
A|-7-7-------------|-----------------|
E|-----------------|-----------------|
 |
 |
e|-----------------|-----------------|
B|-----------------|-----------------|
G|-----------------|-----------------|
D|-----------------|-----------------|
A|-----------------|-----------------|
E|-----------------|-----------------|

Pre Chorus 1: 
This part is diffrent than the verse
                                   
e-----|-----------------|-----------------|
B-----|-----------------|-----------------|
G-X-X-|-9-9---------9---|-4-4---------X-X-|
D-X-X-|-9-9---------9---|-4-4---------X-X-|
A-X-X-|-7-7---------7---|-2-2---------X-X-|
E-----|-----------------|-----------------|
                          
e|-----------------|-----------------|
B|-----------------|-----------------|
G|-7-7---------<7>-|-----------------|
D|-7-7----------<7>|-7-7------<7<7>--|
A|-5-5-------------|-7-7------<7<7>--|
E|-----------------|-5-5-------X-X---|

e|-----------------|-----------------|
B|-----------------|-----------------|
G|-9-9---------X-X-|-4-4-------------|
D|-9-9---------X-X-|-4-4-----------X-|
A|-7-7---------X-X-|-2-2-----------X-|
E|-----------------|-----------------|

e|-----------------|-----------------|
B|-----------------|-----------------|
G|-7-7-----------9-|-----------------|
D|-7-7-------7-7-9-|-7-7-7-7-7-7-7-7-|
A|-5-5-------5-5-7-|-7-7-7-7-7-7-7-7-|
E|-----------------|-5-5-5-5-5-5-5-5-|

Chorus:
e|-----------------|-----------------|
B|-----------------|-----------------|
G|.9-9-9===8-9-9-9-|-4-4-4===3-4-4-4-|
D|.9-9-9===8-9-9-9-|-4-4-4===3-4-4-4-|
A|-7-7-7===6-7-7-7-|-2-2-2===1-2-2-2-|
E|-----------------|-----------------|
 |                                    Chorus outro
e|-----------------|-----------------|-----
B|-----------------|-----------------|-----
G|-7-7-7-7-7-7-7-7-|----------------.|-9-9-
D|-7-7-7-7-7-7-7-7-|-7-7-7-7-7-7-7-7.|-9-9-
A|-5-5-5-5-5-5-5-5-|-7-7-7-7-7-7-7-7-|-7-7-
E|-----------------|-5-5-5-5-5-5-5-5-|-----
[ Tab from: http://www.guitartabs.cc/tabs/o/offspring/shes_got_issues_tab_ver_6.html ]
Prechorus 2:
e-----|-----------------|-----------------|
B-----|---------9-------|---------4-------|
G-XXX-|-9-9-9-----9-----|-----4-----4-----|
D-XXX-|-9-9---9---------|---4---4---------|
A-XXX-|-7-7-------------|-----------------|
E-----|-----------------|-----------------|
 
e|---------2-------|-------------4---|
B|-----4-----4-----|---------2-----5-|
G|---2---2---------|-----2-----2-----|
D|-----------------|---2---2---------|
A|-----------------|-----------------|
E|-----------------|-----------------|

Then goto Chorus but don't play chorus outro
Bridge:
Both guitars

e|-----------------|-----------------|
B|-----------------|-----------------|
G|-5-5-5-5-5-5-5---|-----------------|
D|-5-5-5-5-5-5-5---|-5-5-5-5-5-5-5---|
A|-3-3-3-3-3-3-3---|-5-5-5-5-5-5-5---|
E|-----------------|-3-3-3-3-3-3-3---|
 
e|-----------------|-----------------|
B|-----------------|-----------------|
G|-7-7-7-7-7-7-7---|-----------------|
D|-7-7-7-7-7-7-7---|-7-7-7-7-7-7-7---|
A|-5-5-5-5-5-5-5---|-7-7-7-7-7-7-7---|
E|-----------------|-5-5-5-5-5-5-5---|

e|-----------------|-----------------|
B|-----------------|-----------------|
G|-5-5-5-5-5-5-5---|-----------------|
D|-5-5-5-5-5-5-5---|-5-5-5-5-5-5-5---|
A|-3-3-3-3-3-3-3---|-5-5-5-5-5-5-5---|
E|-----------------|-3-3-3-3-3-3-3---|

  PM........................
e|-----------------|-----------------|
B|-----------------|-----------------|
G|-----------------|-----------------|
D|-----------------|-9-9-9-9-9-9-9-9-|
A|-9-9-9-9-9-9-9-9-|-9-9-9-9-9-9-9-9-|
E|-7-7-7-7-7-7-7-7-|-7-7-7-7-7-7-7-7-|

Then go play Verse 1, Part 2 twice
Then goto Verse 2

Prechorus 3:
            PM.....           .....
e-----|-----------------|-----------------|
B-----|-----------------|-----------------|
G-X-X-|-9-9---------9---|-4-4-------4-4-6-|
D-X-X-|-9-9---------9---|-4-4-------4-4-6-|
A-X-X-|-7-7-7-7-7-7-7---|-2-2-2-2-2-2-2-4-|
E-----|-----------------|-----------------|

       .....             ...........           
e|-----------------|-----------------|
B|-----------------|-----------------|
G|-7-7-------7-7-9-|-----------------|
D|-7-7-------7-7-9-|-7-7---------7---|
A|-5-5-5-5-5-5-5-7-|-7-7-------7-7-7-|
E|-----------------|-5-5-5-5-5-5-5-5-|

            PM.....           .....
e|-----------------|-----------------|
B|-----------------|-----------------|
G|-9-9---------9---|-4-4-------4-4-6-|
D|-9-9---------9---|-4-4-------4-4-6-|
A|-7-7-7-7-7-7-7---|-2-2-2-2-2-2-2-4-|
E|-----------------|-----------------|
       .....                 
e|-----------------|-----------------|
B|-----------------|-----------------|
G|-7-7-------7-7-9-|-----------------|
D|-7-7-------7-7-9-|-7-7-7-7-7-7-7-7-|
A|-5-5-5-5-5-5-5-7-|-7-7-7-7-7-7-7-7-|
E|-----------------|-5-5-5-5-5-5-5-5-|


Chorus 2:
  X4
e|-----------------|-----------------|
B|-----------------|-----------------|
G|.9-9-9===8-9-9-9-|-4-4-4===3-4-4-4-|
D|.9-9-9===8-9-9-9-|-4-4-4===3-4-4-4-|
A|-7-7-7===6-7-7-7-|-2-2-2===1-2-2-2-|
E|-----------------|-----------------|
                                    
e|-----------------|-----------------|
B|-----------------|-----------------|
G|-7-7-7-7-7-7-7-7-|----------------.|
D|-7-7-7-7-7-7-7-7-|-7-7-7-7-7-7-7-7.|
A|-5-5-5-5-5-5-5-5-|-7-7-7-7-7-7-7-7-|
E|-----------------|-5-5-5-5-5-5-5-5-|

With: during 3rd Bar of the the second chorus

e|---------4-------|-----------------|
B|-----5-----5-----|---------4-------|
G|.--4---4---------|-----4-----4-----|
D|.----------------|---4---4---------|
A|-----------------|-----------------|
E|-----------------|-----------------|

e|---------2-------|-------------4---|
B|-----4-----4-----|---------2-----5-|
G|---2---2---------|-----2-----2----.|
D|-----------------|---2---2--------.|
A|-----------------|-----------------|
E|-----------------|-----------------|

Outro:
Very similar to bridge
Both guitars

e|-----------------|-----------------|
B|-----------------|-----------------|
G|.5-5-5-5-5-5-5---|-----------------|
D|.5-5-5-5-5-5-5---|-5-5-5-5-5-5-5---|
A|-3-3-3-3-3-3-3---|-5-5-5-5-5-5-5---|
E|-----------------|-3-3-3-3-3-3-3---|
 
e|-----------------|-----------------|
B|-----------------|-----------------|
G|-7-7-7-7-7-7-7---|----------------.|
D|-7-7-7-7-7-7-7---|-7-7-7-7-7-7-7--.|
A|-5-5-5-5-5-5-5---|-7-7-7-7-7-7-7---|
E|-----------------|-5-5-5-5-5-5-5---|

e|-----------------|-----------------|
B|-----------------|-----------------|
G|-5-5-5-5-5-5-5---|-----------------|
D|-5-5-5-5-5-5-5---|-5-5-5-5-5-5-5---|
A|-3-3-3-3-3-3-3---|-5-5-5-5-5-5-5---|
E|-----------------|-3-3-3-3-3-3-3---|

  PM........................
e|-----------------|-----------------|
B|-----------------|-----------------|
G|-----------------|-----------------|
D|-----------------|-9-9-9-9-9-9-9-9-|
A|-9-9-9-9-9-9-9-9-|-9-9-9-9-9-9-9-9-|
E|-7-7-7-7-7-7-7-7-|-7-7-7-7-7-7-7-7-|

e|-----------------|-----------------|
B|-----------------|-----------------|
G|-9==============================(9)|
D|-9==============================(9)|
A|-7==============================(7)|
E|-----------------|-----------------|
Comments