Offspring - Shes Got Issues Chords & Tabs

 

Shes Got Issues Chords & Tabs

Offspring Chords & Tabs

Version: 5 Type: Tab 0 ratings
1 star 2 stars 3 stars 4 stars 5 stars
comments

Shes Got Issues Tab

   
The Offspring
Song Title: She got issues
Album: Americana

M = Palm Mute

Tuning: E, A, D, G, B, E
Timing: 120 BPM (1 * 2 * 3 * 4 *)

Intro: (disortion)
  1                 2
e|-----------------|-----------------|
B|-----------------|-----------------|
G|-9-4-4-4-4-4-4-4-|-4-4-4-4-4-4-4-4-|
D|-9-4-4-4-4-4-4-4-|-4-4-4-4-4-4-4-4-|
A|-7-2-2-2-2-2-2-2-|-2-2-2-2-2-2-2-2-|
E|-----------------|-----------------|
   1 * 2 * 3 * 4 *   1 * 2 * 3 * 4 *
   M M M M M M M M   M M M M M M M M 
[ Tab from: http://www.guitartabs.cc/tabs/o/offspring/shes_got_issues_tab_ver_5.html ]
  3                 4
e|-----------------|-----------------|
B|-----------------|-----------------|
G|-9-9-------------|-----------------|
D|-9-9-------------|-9-9-------------|
A|-7-7---------7---|-9-9---------9-10|
E|-----------0---0-|-7-7-------0-7-9-|
   1 * 2 * 3 * 4 *   1 * 2 * 3 * 4 *
             M M M             M M M
 
  5                  6
e|------------------|-----------------|
B|------------------|-----------------| go
G|------------------|-----------------|
D|------------6-7-9-|-----------------| to
A|-12-12------4-5-7-|-7-7-------6-7---| 
E|-10-10------------|-5-5-------4-5-0-| 3(!)
   1  * 2 * 3 * 4 *   1 * 2 * 3 * 4 *
              M M M             M M M

Tabbed by: Arvid Keemink
Special thanks: My teacher :)
Comments