Offspring - Shes Got Issues Chords & Tabs

 

Shes Got Issues Chords & Tabs

Offspring Chords & Tabs

Version: 4 Type: Tab 0 ratings
1 star 2 stars 3 stars 4 stars 5 stars
comments

Shes Got Issues Tab

 SONG :  Offspring - She Got Issues
 TABBER :  Nate Park, Morecambe

Intro
         
|--------------------------|
|--------------------------|
|--------------------------|
|-9-9-9-9-9-9-9-9-9-9-9-9--|
|-9-9-9-9-9-9-9-9-9-9-9-9--|
|-7-7-7-7-7-7-7-7-7-7-7-7--|
         |__________|  PM

Verse (1)

|-----------------------------------------------|
|-----------------------------------------------|
|-9-9----9--9-9-4-4----4-4-6-7-7----7-7-7-------|
|-9-9----9--9-9-4-4----4-4-6-7-7----7-7-7--7-7--|
|-7-7----7--7-7-2-2----2-2-4-5-5----5-5-5--7-7--|
|------------------------------------------5-5--|

Verse (2)

|-------------------------------------------------|
|-------------------------------------------------|
|-9-9---9--9-9-4-4-----4-4-6-7-7----7-7-9---------|
|-9-9---9--9-9-4-4-----4-4-6-7-7----7-7-9----7-7--|
|-7-7---7--7-7-2-2-----2-2-4-5-5----5-5-7----7-7--|
|--------------------------------------------5-5--|
           |_______________________________|  PM	


Riff

|----------------------------------------------|
|------9---------7----------7---------5--9-----|
|--9----9----8----8-----7----7----6----6--9----|
|-9-9-------9-9--------7-7-------7-7-----------|
|----------------------------------------------|
|----------------------------------------------|

Chorus
[ Tab from: http://www.guitartabs.cc/tabs/o/offspring/shes_got_issues_tab_ver_4.html ]
|-------------------------------------------------------|
|-------------------------------------------------------|
|-9-9-9-7-9-9-9-7-----------------7-7-7-7-7-------------|
|-9-9-9-7-9-9-9-7-9-9-9-7-9-9-9-7-7-7-7-7-7-7-7-7-7-7-7-|
|-7-7-7-5-7-7-7-5-9-9-9-7-9-9-9-7-5-5-5-5-5-7-7-7-7-7-7-|
|-----------------7-7-7-5-7-7-7-5-----------5-5-5-5-5-5-|


Bridge (1)

|-----------------------------------------------------|
|-----------------------------------------------------|
|-5-5-5-5-5-5---------------------------9-9-9-9-9-9-9-|
|-5-5-5-5-5-5-5-5-5-5-5-5-5-7-7-7-7-7-7-9-9-9-9-9-9-9-|
|-3-3-3-3-3-3-5-5-5-5-5-5-5-7-7-7-7-7-7-7-7-7-7-7-7-7-|
|-------------3-3-3-3-3-3-3-5-5-5-5-5-5---------------|
Bridge (2)

|---------------------------------------------------------|
|---------------------------------------------------------|
|-5-5-5-5-5-5-5-5-----------------------------------------|
|-5-5-5-5-5-5-5-5-5-5-5-5-5-5-5-5-9-9-9-9-9-9-9-9-9-9-9-9-|
|-3-3-3-3-3-3-3-3-5-5-5-5-5-5-5-5-9-9-9-9-9-9-9-9-9-9-9-9-|
|-----------------3-3-3-3-3-3-3-3-7-7-7-7-7-7-7-7-7-7-7-7-|
			                |____________|  PM				

GUITAR 1			GUITAR 2

INTRO 		x1		INTRO 	   x1

VERSE (1)   	x1		VERSE (1)  x1
VERSE (1)    	x1		RIFF 	   x1

VERSE (2) 	x2		VERSE (2)  x2
VERSE (1) 	x2		VERSE (1)  x2
CHORUS  	x2		CHORUS     x2

VERSE (2)  	x1		VERSE (2)  x1
VERSE (2)  	x1 		RIFF       x1
CHORUS  	x2		CHORUS     x2

BRIDGE  	x1		BRIDGE     x1
VERSE (1)       x2		RIFF       x2

VERSE (2) 	x2		VERSE (2) 	x2
VERSE (1) 	x2		VERSE (1) 	x2
CHORUS  	x2		CHORUS  	x2

CHORUS  	x2		VERSE (1)       x2
BRIDGE (1)   	x3		BRIDGE (1)   	x3
BRIDGE (2)   	x1		BRIDGE (2)   	x1

 		
		END ON 

                       ----------||
	               ----------||
                       ----9-----||
	               ----9-----||
	               ----7-----||
	               ----------||
Comments