Offspring - Shes Got Issues Chords & Tabs

 

Shes Got Issues Chords & Tabs

Offspring Chords & Tabs

Version: 3 Type: Tab 0 ratings
1 star 2 stars 3 stars 4 stars 5 stars
comments

Shes Got Issues Tab

#----------------------------------PLEASE NOTE---------------------------------#
#This file is the author's own work and represents their interpretation of the #
#song. You may only use this file for private study, scholarship, or research. #
#------------------------------------------------------------------------------##

The Offspring
She's Got Issues

Intro
For the power chord intro. gradually relax the palm muting so that the last four hits
are fully ringing, ready to kick into the main riff.
       PM                      PM                                               
E---------------------------|--------------------------|------------------------
B---------------------------|--------------------------|------------------------
G---4--4--4--4--4--4--4--4--|--4--4--4--4--4--4--4--4--|------------------------
D---4--4--4--4--4--4--4--4--|--4--4--4--4--4--4--4--4--|------------------------
A---2--2--2--2--2--2--2--2--|--2--2--2--2--2--2--2--2--|------------------------
E---------------------------|--------------------------|------------------------
                                                                            


Main Riff Verse
Selective Palm Muting applied

                                                                                
E------------------------------------------|-----------------------------|------
B------------------------------------------|-----------------------------|------
G---------9--9-----------------9-----------|--4--4-----------------4--6--|------
D---------9--9-----------------9-----------|--4--4-----------------4--6--|------
A---------7--7-----------------7-----------|--2--2-----------------2--4--|------
E------------------------0-----------0-----|-----------------0-----------|------
                                                                                

                                                                                
E---------------------------|-----------------------|-------------------|-------
B---------------------------|-----------------------|-------------9-----|-------
G---7-----7--6-----7-----9--|--2--2-----------------|--------9\------9--|-------
D---7-----7--6-----7-----9--|--2--2-----6--7--------|-----9-------------|-------
A---5-----5--4-----5-----7--|--0--0-----6--7--------|-------------------|-------
E---------------------------|-----------4--5-----0--|-------------------|-------
                                                                                

                                                                                
E-----------------|----------------|---------------------------|----------------
B-----------7-----|----------7-----|-------------5-------9-----|----------------
G------8\------8--|-----7\------7--|-----6\---------6\------9--|----------------
D---9-------------|--7-------------|--7-------7----------------|----------------
A-----------------|----------------|---------------------------|----------------
E-----------------|----------------|---------------------------|----------------
                                                                            

Pre Chorus
The Pre Chorus in punctuated with natural harmonics
[ Tab from: http://www.guitartabs.cc/tabs/o/offspring/shes_got_issues_tab_ver_3.html ]
                      NH    NH                      NH    NH                    
E------------------------------|-----------------------------|------------------
B------------------------------|-----------------------------|------------------
G---9--9-----------------------|-----------------------------|------------------
D---9--9-----------------------|--9--9-----------------------|------------------
A---7--7-----------7-----7-----|--9--9-----------------------|------------------
E------------------------------|--7--7-----------7-----7-----|------------------
                                                                                

                      NH    NH                      NH    NH                    
E------------------------------|------------------------------||----------------
B------------------------------|------------------------------||----------------
G---7--7-----------------------|-----2--2--------------------*||----------------
D---7--7-----------------------|-----2--2--------------------*||----------------
A---5--5-----------7-----7-----|-----0--0--------7-----7------||----------------
E------------------------------|------------------------------||----------------
                                                                                

                                                                                
E------------------------------------------||-----------------------------------
B------------------------------------------||-----------------------------------
G------2--2-----2--2-----2--2-----2--2-----||-----------------------------------
D------2--2-----2--2-----2--2-----2--2-----||-----------------------------------
A------0--0-----0--0-----0--0-----0--0-----||-----------------------------------
E------------------------------------------||-----------------------------------
                                                                            

Chorus Section played with no muting and using downstrokes.

                                                                                
E---------------------------------------------------|---------------------------
B---------------------------------------------------|---------------------------
G------9-----9-----9--------8-----9-----9-----9-----|---------------------------
D------9-----9-----9--------8-----9-----9-----9--8--|---------------------------
A------7-----7-----7--------6-----7-----7-----7--8--|---------------------------
E------------------------------------------------6--|---------------------------
                                                                                

                                                                                
E---------------------------|--------------------------|------------------------
B---------------------------|--------------------------|------------------------
G------------------------6--|--7--7--7--7--7--7--7--7--|------------------------
D---9--9--9--8--9--9--9--6--|--7--7--7--7--7--7--7--7--|------------------------
A---9--9--9--8--9--9--9--4--|--5--5--5--5--5--5--5--5--|------------------------
E---7--7--7--6--7--7--7-----|--------------------------|------------------------
                                                                                

                                                                                
E----------------------------||-------------------------------------------------
B----------------------------||-------------------------------------------------
G---2--2--2--2--2--2--2--2--*||-------------------------------------------------
D---2--2--2--2--2--2--2--2--*||-------------------------------------------------
A---0--0--0--0--0--0--0--0---||-------------------------------------------------
E----------------------------||-------------------------------------------------
                                                                            
Comments