Offspring - Shes Got Issues Chords & Tabs

 

Shes Got Issues Chords & Tabs

Offspring Chords & Tabs

Version: 2 Type: Tab 0 ratings
1 star 2 stars 3 stars 4 stars 5 stars
comments

Shes Got Issues Tab

   
Artist: Offspring
Song: She's got issues
Tabbed by: John Leadman

A:
    1 + 2 + 3 + 4 + 1 + 2 + 3 + 4 + 
e' ---------------------------------
b  ---------------------------------
g  ---------------------------------
d  -9-9-9-9-9-9-9-9-9-9-9-9-9-9-9-9-
A  -9-9-9-9-9-9-9-9-9-9-9-9-9-9-9-9-
E  -7-7-7-7-7-7-7-7-7-7-7-7-7-7-7-7-
   \pm_____________________________/


B:
    1 + 2 + 3 + 4 + 1 + 2 + 3 + 4 + 1 + 2 + 3 + 4 + 1 + 2 + 3 + 4 +
e' -----------------------------------------------------------------
b  -----------------------------------------------------------------
g  -9-9---------9-9-----------------7-7---------7-7-----------------
d  -9-9---------9-9-9-9---------9-9-7-7---------7-7-7-7---------7-7-
A  -7-7-------7-7-7-9-9---------9-9-5-5-------5-5-5-7-7---------7-7-
E  -----------------7-7-------7-7-7-----------------5-5-------5-5-5-
                \pm/            \pm/            \pm/            \pm/


B':
    1 + 2 + 3 + 4 + 1 + 2 + 3 + 4 + 1 + 2 + 3 + 4 + 1 + 2 + 3 + 4 +
e' -----------------------------------------------------------------
b  -----------------------------------------------------------------
g  -9-9---------x-x-----------------7-7---------x-x-----------------
d  -9-9---------x-x-9-9---------x-x-7-7---------x-x-7-7---------x-x-
A  -7-7-------7-x-x-9-9---------x-x-5-5-------5-x-x-7-7---------x-x-
E  -----------------7-7-------7-x-x-----------------5-5-------5-x-x-
              


B'':
    1 + 2 + 3 + 4 + 1 + 2 + 3 + 4 + 1 + 2 + 3 + 4 + 1 + 2 + 3 + 4 +
e' -----------------------------------------------------------------
b  -----------------------------------------------------------------
g  -9-9---------x-x-----------------7-7---------x-x-----------------
d  -9-9---------x-x-9-9---------x-x-7-7---------x-x-7-7-7-7-7-7-7-7-
A  -7-7-------7-x-x-9-9---------x-x-5-5-------5-x-x-7-7-7-7-7-7-7-7-
E  -----------------7-7-------7-x-x-----------------5-5-5-5-5-5-5-5-
              


B''':
    1 + 2 + 3 + 4 + 1 + 2 + 3 + 4 + 1 + 2 + 3 + 4 + 1 + 2 + 3 + 4 +
e' -----------------------------------------------------------------
b  -----------------------------------------------------------------
g  -9-9-9-9-9-9-9-9-----------------7-7-7-7-7-7-7-7-----------------
d  -9-9-9-9-9-9-9-9-9-9-9-9-9-9-9-9-7-7-7-7-7-7-7-7-7-7-7-7-7-7-7-7-
A  -7-7-7-7-7-7-7-7-9-9-9-9-9-9-9-9-5-5-5-5-5-5-5-5-7-7-7-7-7-7-7-7-
E  -----------------7-7-7-7-7-7-7-7-----------------5-5-5-5-5-5-5-5-
               



C:
    1 + 2 + 3 + 4 + 1 + 2 + 3 + 4 + 1 + 2 + 3 + 4 + 1 + 2 + 3 + 4 +
e' -----------------------------------------------------------------
b  -----------------------------------------------------------------
g  -9-9-------------------------------------------------------------
d  -9-9-------------------------------------------------------------
A  -7-7-------------------------------------------------------------
E  -----------------------------------------------------------------


[ Tab from: http://www.guitartabs.cc/tabs/o/offspring/shes_got_issues_tab_ver_2.html ]
    1 + 2 + 3 + 4 + 1 + 2 + 3 + 4 + 1 + 2 + 3 + 4 + 1 + 2 + 3 + 4 +
e' -----------------------------------------------------------------
b  -----------------------------------------------------------------
g  -----------------------------------------------------------x-x-x-
d  -----------------------------------------------------------x-x-x-
A  -----------------------------------------------------------x-x-x-
E  -----------------------------------------------------------x-x-x-



C':
    1 + 2 + 3 + 4 + 1 + 2 + 3 + 4 + 1 + 2 + 3 + 4 + 1 + 2 + 3 + 4 +
e' -----------------------------------------------------------------
b  -----------------------------------------------------------------
g  -9-9-------------------------------------------------------x-x-x-
d  -9-9-------------------------------------------------------x-x-x-
A  -7-7-------------------------------------------------------x-x-x-
E  -----------------------------------------------------------x-x-x-



d:
    1 + 2 + 3 + 4 + 1 + 2 + 3 + 4 + 1 + 2 + 3 + 4 + 1 + 2 + 3 + 4 +
e' -----------------------------------------------------------------
b  -----------------------------------------------------------------
g  -5:----------------------------------------------9:--------------
d  -5:--------------5:--------------7:--------------9:--------------
A  -3:--------------5:--------------7:--------------7:--------------
E  -----------------3:--------------5:------------------------------


d':
    1 + 2 + 3 + 4 + 1 + 2 + 3 + 4 + 1 + 2 + 3 + 4 + 1 + 2 + 3 + 4 +
e' -----------------------------------------------------------------
b  -----------------------------------------------------------------
g  -5:--------------------------------------------------------------
d  -5:--------------5:--------------9-9-9-9-9-9-9-9-9-9-9-9-9-9-9-9-
A  -3:--------------5:--------------9-9-9-9-9-9-9-9-9-9-9-9-9-9-9-9-
E  -----------------3:--------------7-7-7-7-7-7-7-7-7-7-7-7-7-7-7-7-
                                    \pm___________________________/


E:
    1 + 2 + 3 + 4 + 1 + 2 + 3 + 4 + 1 + 2 + 3 + 4 + 1 + 2 + 3 + 4 +
e' -----------------------------------------------------------------
b  -----------------------------------------------------------------
g  -9:--------------------------------------------------------------
d  -9:--------------------------------------------------------------
A  -7:--------------------------------------------------------------
E  -----------------------------------------------------------------



Riff 1:
    1 + 2 + 3 + 4 + 1 + 2 + 3 + 4 + 1 + 2 + 3 + 4 + 1 + 2 + 3 + 4 +
e' -----------------------------------------------------------------
b  ---------9-------------------------------7-------------------5---
g  -------9---9-------------8-------------7---7-------------6-------
d  -----9-----------------9---9---------7-----------------7---7---7-
A  ---7-----------------9-------------5-----------------7-----------
E  -------------------7-------------------------------5-------------



Song structure:

INTRO:
A

PRE-VERSE:
B
B w/ Riff 1

VERSE:
C
B'
B''

CHORUS:
B'''
B'''

VERSE:
C'
B'' w/ Riff 1

CHORUS:
B'''
B'''

POST-CHORUS:
d
d'

PRE-VERSE:
B w/ Riff 1
B w/ Riff 1

VERSE:
C
B'
B''

CHORUS:
B'''
B'''
B''' w/ Riff 1
B''' w/ Riff 1

POST-CHORUS:
d
d
d
d'

OUTRO:
E

Comments