Offspring - Shes Got Issues Chords & Tabs

 

Shes Got Issues Chords & Tabs

Offspring Chords & Tabs

Version: 1 Type: Tab 0 ratings
1 star 2 stars 3 stars 4 stars 5 stars
comments

Shes Got Issues Tab

   
She's Got Issues

Artist: The Offspring
Album: Americana
Tabbed By: sultzbachp@hotmail.com
Tuning: Standard

A buddy of mine showed me an easy way to play this excellent tune
and it sounds way better than any of the other tabs I've seen online.
Even if you think what you have already sounds good, give this a try.
It SOUNDS correct!  The timing is SUPER easy to figure out

Intro: 

G|------------------------------------9-9----9-9---------------|
D|---9--------------------------------9-9----9-9-9-9-9---------|
A|---9-------------9-----9-----9---9--7-7----7-7-9-9-9---------|
E|---7-7-7-7-7-7-7-7-7-7-7-7-7-7-7-7-------------7-7-7---------|

G|-----6-7-7----6-7-9------------------------------------------|
D|-9-9-6-7-7----6-7-9-7-7--------------------------------------|
A|-9-9-4-5-5----4-5-7-7-7--------------------------------------|
E|-7-7----------------5-5--------------------------------------|

Little Diddy Thingy:
[ Tab from: http://www.guitartabs.cc/tabs/o/offspring/shes_got_issues_tab.html ]
e|-------------------------------------------------------------|
B|--------9------------7------------7------------5---9---------|
G|----9-----9------8-----8------7-----7------6-----6---9-------|
D|--9---9--------9---9--------7---7--------7---7---------------|

Verse:

G|------9-9----9-9--------------6-7-7----6-7-9-----------------|
D|-7-7--9-9----9-9-9-9-9----9-9-6-7-7----6-7-9-7-7-------------|
A|-7-7--7-7----7-7-9-9-9----9-9-4-5-5----4-5-7-7-7-------------|
E|-5-5-------------7-7-7----7-7----------------5-5-------------|

Chorus:

G|-9-9-9-9-9s8s9-9-----------------7-7-7-7-7-7-7---------------|
D|-9-9-9-9-9s8s9-9-9-9-9-9-9s8s9-9-7-7-7-7-7-7-7-7-7-7-7-7-7-7-|
A|-7-7-7-7-7s6s7-7-9-9-9-9-9s8s9-9-5-5-5-5-5-5-5-7-7-7-7-7-7-7-|
E|-----------------7-7-7-7-7s6s7-7---------------5-5-5-5-5-5-5-|


Bridge:                               Outro (With Bridge)

G|-5-5-5-5-------------------9-9-9-9-{-------------------9-}---|
D|-5-5-5-5-5-5-5-5-s-7-7-7-7-9-9-9-9-{-9-9-9-9-9-9-9-9-9-9-}---|
A|-3-3-3-3-5-5-5-5-s-7-7-7-7-7-7-7-7-{-9-9-9-9-9-9-9-9-9-7-}---|
E|---------3-3-3-3-s-5-5-5-5---------{-7-7-7-7-7-7-7-7-7---}---|
Comments