Offspring - She S Got Issues Chords & Tabs

 

She S Got Issues Chords & Tabs

Offspring Chords & Tabs

Version: 1 Type: Tab 0 ratings
1 star 2 stars 3 stars 4 stars 5 stars
comments

She S Got Issues Tab

   
Artist: Offspring
Album: Americana
Title: She's Got Issues
Transcribbed by: Jomar Agojo
               (Calamba Laguna)
Email @ j.shaq@hot-shot.com/j.shaq@mail.com


  This is my first tab so I hope you can get it easily. Tang ina pag dimo pa to' natipa tanga ka na. E-mail me if you have questions. If you notice a little bit of incorrect note it's up to you, change it. But I think it's all correct so sige na uuwi pa ko eh.
    

Intro: 15 times
E-----|
B-----|
G-----|
D--7--|
A--7--|
E--5--|
[ Tab from: http://www.guitartabs.cc/tabs/o/offspring/she_s_got_issues_tab.html ]
E-----------------------------------------------------|
B-----------------------------------------------------|
G--7-7-7--7-7-9------------------------------7--------|
D--7-7-7--7-7-9-7-7-7--7-7-9-10-10-10--10-10-7-5-5-5--|
A--5-5-5--5-5-7-7-7-7--7-7-9-10-10-10--10-10-5-5-5-5--|
E---------------5-5-5--5-5-7--8--8--8---8--8---3-3-3--|


    Two times before the lyrics 

          D                 A                 C                G                    
 
E----------2-----------------0-----------------0-------------------------|
B------3-----3---3-------2-----2---2-------1-----1---1----------3--------|
G----2---2-----2-------2---2-----2-------0---0-----0--------4-----4---4--|
D--0------------------------------------------------------5---5-----5----|
A--------------------0-----------------3---------------------------------|
E-------------------------------------------------------3----------------|
                                  no distortion
            
Comments