Offspring - Session Chords & Tabs

 

Session Chords & Tabs

Offspring Chords & Tabs

Version: 3 Type: Tab 0 ratings
1 star 2 stars 3 stars 4 stars 5 stars
comments

Session Tab

          ------------------------------------------------------------
                         Session - The Offspring           
          ------------------------------------------------------------

 

 : - let ring
 



+ 1st Guitar - Dexter Holland
+ 2nd Guitar - Noodles




+ Intro
e|------------------------------|
B|------------------------------|
G|--777-10101010-555------------|
D|--777-10101010-555-5555-(x2)--|
A|--555--8-8-8-8-333-5555-------|
E|-------------------3333-------|


+ I don't know when it got this way...
e|----------------------------|
B|----------------------------|
G|--77-71010-1055-5-----------|   # at second time the 2nd guitar
D|--77-71010-1055-555-5-(x4)--|     play the same but p.m (palm mute)
A|--55-5-8-8--833-355-5-------|
E|-----------------33-3-------|


+ Session, I'll never learn...
e|------------------------|
B|------------------------|
G|--7777-8-99------55-----|
D|--7777-8-99-(x3)-55-55--|   (x2)
A|--5555-6-77------33-55--|
E|--------------------33--| 



e|------------------------------------|
B|------------------------------------|
G|--77-55-77-55-77-55-77-55-77-55-77--|
D|--77-55-77-55-77-55-77-55-77-55-77--|
A|--55-33-55-33-55-33-55-33-55-33-55--|
E|------------------------------------|

[ Tab from: http://www.guitartabs.cc/tabs/o/offspring/session_tab_ver_3.html ]
+ Some might say it's a fling...
e|----------------------------|
B|----------------------------|
G|--77-71010-1055-5-----------|    # at second time the 2nd guitar
D|--77-71010-1055-555-5-(x4)--|      play the same but p.m (palm mute)
A|--55-5-8-8--833-355-5-------|
E|-----------------33-3-------| 


+ Session, I'll never learn...
e|------------------------|
B|------------------------|
G|--7777-8-99------55-----|
D|--7777-8-99-(x3)-55-55--|    (x2)
A|--5555-6-77------33-55--|
E|--------------------33--|  



e|------------------------------------|
B|------------------------------------|
G|--77-55-77-55-77-55-77-55-77-55-77--|
D|--77-55-77-55-77-55-77-55-77-55-77--|
A|--55-33-55-33-55-33-55-33-55-33-55--|
E|------------------------------------|



e|-----------------------------------|
B|-----------------------------------|
G|--7777-55-10101010-55------8:-5-7--|
D|--7777-55-10101010-55-(x3)-8:-5-7--|
A|--5555-33--8-8-8-8-33------6:-3-5--|
E|-----------------------------------|


+ Here I go, I go again...
e|----------------------------|
B|----------------------------|
G|--77-71010-1055-5-----------|
D|--77-71010-1055-555-5-(x2)--|
A|--55-5-8-8--833-355-5-------|
E|-----------------33-3-------|


+ Session, I'll never learn...
e|------------------------|
B|------------------------|
G|--7777-8-99------55-----|
D|--7777-8-99-(x3)-55-55--|    (x2)
A|--5555-6-77------33-55--|
E|--------------------33--| 



e|------------------------------------|
B|------------------------------------|
G|--77-55-77-55-77-55-77-55-77-55-77--|
D|--77-55-77-55-77-55-77-55-77-55-77--|
A|--55-33-55-33-55-33-55-33-55-33-55--|
E|------------------------------------|



+ Tabber

+ Felipe Silva
+ Santiago, Chile
+ 15

+ pipe_@walla.com
Comments