Offspring - Session Chords & Tabs

 

Session Chords & Tabs

Offspring Chords & Tabs

Version: 2 Type: Tab 0 ratings
1 star 2 stars 3 stars 4 stars 5 stars
comments

Session Tab

"Session"
by Offspring


intro (2 times)

-------------------------------------------------
-------------------------------------------------
-7-7-7-7-----10-10-10-10----5-5-5-5--------------
-7-7-7-7-----10-10-10-10----5-5-5-5----5-5-5-5---
-5-5-5-5------8--8--8--8----3-3-3-3----5-5-5-5---
---------------------------------------3-3-3-3---

verse (2 times)

----------------------------------------
----------------------------------------
-7-7-7-----7-10-10-----7-5-5----7-------
-7-7-7-----7-10-10-----7-5-5----7-5-5---
-5-5-5-----5--8--8-----5-3-3----5-5-5---
----------------------------------3-3---

rhythm 1

----------------------------------
----------------------------------
-7--------10-------5--------------
-7-8X-----10-8X----5-8X----5------
-5---------8-------3-------5-8X---
---------------------------3------

chorus "Session, Session..."
[ Tab from: http://www.guitartabs.cc/tabs/o/offspring/session_tab_ver_2.html ]
----------------------------------
----------------------------------
-7-7----7-7-7----7-10-------------
-7-7----7-7-7----7-10----play 3X--
-5-5----5-5-5----5--8-------------
----------------------------------

end with

----------------------------
----------------------------
-5--------------------------
-5---5----------------------
-3---5----------------------
-----3----------------------

rhythm 2

------------------------------------------------
------------------------------------------------
--7-----5-6-7-7----5-6-7-7---5-6-7-7---5-6-7-7--
--7-----5-6-7-7----5-6-7-7---5-6-7-7---5-6-7-7--
--5-----3-4-5-5----3-4-5-5---3-4-5-5---3-4-5-5--
------------------------------------------------

repeat verse

repeat rhythm 1

repeat chorus

repeat rhythm 2

------------------------------------------
------------------------------------------
----------7-7-7----5-5---10-10-10---5-5---play
-pick-----7-7-7----5-5---10-10-10---5-5---3 times
-slide----5-5-5----3-3----8--8--8---3-3---
------------------------------------------

end with

----------------------------
----------------------------
--3---5---------------------
--3---5---------------------
--1---3---------------------
----------------------------

repeat rhythm 1

repeat chorus

repeat rhythm 2


Comments