Offspring - Session Chords & Tabs

 

Session Chords & Tabs

Offspring Chords & Tabs

Version: 2 Type: Bass Tab 0 ratings
1 star 2 stars 3 stars 4 stars 5 stars
comments

Session Bass Tab

   
#----------------------------------PLEASE NOTE---------------------------------#
#This file is the author's own work and represents their interpretation of the #
#song. You may only use this file for private study, scholarship, or research. #
#------------------------------------------------------------------------------##

Song:Session
Artist:The Offspring
Tabbed by:Ronny Ø
[ Tab from: http://www.guitartabs.cc/tabs/o/offspring/session_btab_ver_2.html ]
: Intro
G:-----------------------------------------------------|
D:-------3-3-3--------------------3-3-3----------------|
A:-5-5-5-------3-3-3--------5-5-5-------3-3-3----------|
E:-------------------3-3-3--------------------3-3-3----|
:
: Verse  2x
G:--------------------------------------------------------|
D:---------3-3--3---------------------3-3--3--------------|
A:-5-5---5--------3-3--3-------5-5--5--------3-3--3-------|
E:-----------------------3-3-3----------------------3-3-3-|
:
: Verse part II  2x 
G:-----------------------------------------------------|
D:-------3-3-3--------------------3-3-3----------------|
A:-5-5-5-------3-3-3--------5-5-5-------3-3-3----------|
E:-------------------3-3-3--------------------3-3-3----|
: 
: Intro                                        1st time 
G:-------------------------------------------------------------
D:-0-0-0--2-2-3-3-0-0-0-2-2-3-3-0-0-0-2-2-3-3------------------  
A:---------------------------------------------3-3-3-3---------  
E:-----------------------------------------------------3-3-3-3-
:  2nd time
:
G:---------------------------------------------------------------------------
D:-0-0-0--2-2-3-3-0-0-0-2-2-3-3-0-0-0-2-2-3-3--------------------------------
A:---------------------------------------------3-3-3-3-3-3-3-3---------------
E:-------------------------------------------------------------3-3-3-3-3-3-3-
:
:  After chorus part goes like this
G:-----------------------------|
D:-----------------------------|
A:-5-3-4-5-3-4-5-3-4-5-3-4-5-5-|
E:-----------------------------|
:
: After only drums part
G:---------------------------------------------------------------------------|
D:-------------3-3-3-----------------3-3-3----------------3-3-3--------------|
A:--5-5-5-3-3--------3-3--5-5-5--3-3-------3-3--5-5-5-3-3-------3-3--1--3--5-|
E:---------------------------------------------------------------------------|
Comments