Offspring - Self Esteem Chords & Tabs

 

Self Esteem Chords & Tabs

Offspring Chords & Tabs

Version: 8 Type: Tab 0 ratings
1 star 2 stars 3 stars 4 stars 5 stars
comments

Self Esteem Tab

                                        
#----------------------------------PLEASE NOTE--------------------------------#
#This file is the author's own work and represents their interpretation of the#
#song. You may only use this file for private study, scholarship, or research.#
#-----------------------------------------------------------------------------#

Artist: Offspring
Title: Self Esteem
Album: Smash
Transcribed by: Hefty Baggs
[ Tab from: http://www.guitartabs.cc/tabs/o/offspring/self_esteem_tab_ver_8.html ]
Intro/ Verse/ Chorus:                                       p.m.
-|-----------------------------|-------------------------------|----------|-
-|-----------------------------|-------------------------------|----------|-
-|------/9-9-9-5-5-xxx---------|------/9-9-5-5-xxx---------7---|-10-10-10-|-
-|-7-7-7/9-9-9-5-5-xxx-5-5-5-5-|-7-7-7/9-9-5-5-xxx-5-5-5-5-7-3-|-10-10-08-|-
-|-7-7-7/7-7-7-3-3-xxx-5-5-5-5-|-7-7-7/7-7-3-3-xxx-5-5-5-5-5-3-|-08-08-08-|-
-|-5-5-5/7-7-7-----xxx-3-3-3-3-|-5-5-5/7-7-----xxx-3-3-3-3-5-1-|-08-08-08-|-

Bass Line:
-|-------------------------|-
-|-------------------------|-
-|-------------------------|-
-|-------------------------|-
-|-------------33333-------|-
-|-55555-11111-------33333-|-

Pre Chorus is the same as intro exact palm muted.
Comments