Offspring - Self Esteem Chords & Tabs

 

Self Esteem Chords & Tabs

Offspring Chords & Tabs

Version: 7 Type: Tab 0 ratings
1 star 2 stars 3 stars 4 stars 5 stars
comments

Self Esteem Tab

This is a less complicated version of gold_toppers tab
(I think so anyway)


e||--|--------------------|---|----------|---------|------------|-----------|
B||--|--------------------|---|----------|---------|---B--------|-----------|
G||--|------10----5-------|---|----------|---------|----A--O----|-----------|
D||5-|--7---10----5----5--|-%-|-----3----|-5----7--|-----S--N---|--7---5-/--|
A||5-|--7---8-----3----5--|---|-----3----|-5----7--|------S--L--|--7---5-/--|
E||3-|--5--------------3--|---|-----1----|-3----5--|----------Y-|--5---3-/--|
                             P.M.--X 10                                    
                        
I wrote her off...
 
e||---------|---------------|--------------------|
B||---------|---------------|--------------------|
G||---------|---------------|------10----5-------|
D||7--5--/--|--3--10--5---7-|--7---10----5----5--|
A||7--5--/--|--3--10--5---7-|--7---8-----3----5--|
E||5--3--/--|--1--8---3---5-|--5--------------3--|

          P.M.----------   O yeah....


We make plans...
e||---------------|--------------------|
B||---------------|--------------------|
G||---------------|------10----5-------|
D||--3--10--5---7-|--7---10----5----5--|
A||--3--10--5---7-|--7---8-----3----5--|
E||--1--8---3---5-|--5--------------3--|

All this rejection... FIG 5 + FIG 1

here are the words
[ Tab from: http://www.guitartabs.cc/tabs/o/offspring/self_esteem_tab_ver_7.html ]
e||--------------|---------------------|----------|---------|------------|-----------|
B||--------------|---------------------|----------|---------|--B---------|-----------|
G||--------------|---------------------|----------|---------|---A--O-----|-----------|
D||12---8--3--10-|-12----8---10---5--3-|-----3----|-5----7--|----S--N----|--7---5-/--|
A||12---8--3--10-|-12----8---10---5--3-|-----3----|-5----7--|-----S--L---|--7---5-/--|
E||10---6--1--8--|-10----6----8---3--1-|-----1----|-3----5--|---------Y--|--5---3-/--|
                                     
When she...    The more you suffer...

I wrote her off for the tenth time today
And practiced all the things I would say
But she came over
I lost my nerve
I took her back and made her dessert
Now I know I'm being used
That's okay man cause I like the abuse
I know she's playing with me
That's okay cause I've got no self esteem
We make plans to go out at night
I wait till 2 then I turn out the light
All this rejection's got me so low
If she keeps it up I just might tell her so
When she's saying that she wants only me
Then I wonder why she sleeps with my friends
When she's saying that I'm like a disease
Then I wonder how much more I can spend
Well I guess I should stick up for myself
But I really think it's better this way
The more you suffer
The more it shows you really care Right? 
Now I'll relate this a little bit
That happens more than I'd like to admit
Late at night she knocks on my door
Drunk again and looking to score
Now I know I should say no
But that's kind of hard when she's ready to go
I may be dumb
But I'm not a dweeb
I'm just a sucker with no self esteem
Comments