Offspring - Self Esteem Chords & Tabs

 

Self Esteem Chords & Tabs

Offspring Chords & Tabs

Version: 12 Type: Tab 0 ratings
1 star 2 stars 3 stars 4 stars 5 stars
comments

Self Esteem Tab

   
                               Self Esteem
                        As recorded by The Offspring
                        (From the 1994 Album Smash)


Words and Music by The Offspring
transcribed by infi


 Intro:
 같같같
  Q=106
 4/4
   +W     H  Q  E  +E      Q   Q   S S S  E   S   +S  +S   Q    Q    S  S  S E  E     +S
e|-----|---------------|---------------------------------|-------------------------------|
B|-----|---------------|---------------------------------|-------------------------------|
G|-----|---------------|---------------------------------|-------------------------------|
D|-----|----------s(5)-|--s7---7---7-7s15-15--15-(15)s10-|-10---10---10-10s5-5--5--(5)s7-|
A|-----|----------s(5)-|--s7---7---7-7s15-15--15-(15)s10-|-10---10---10-10s5-5--5--(5)s7-|
E|-----|----------s(3)-|--s5---5---5-5s13-13--13-(13)s8--|-8----8----8--8-s3-3--3--(3)s5-|


    Q   Q   S S S  E   S   +S  +S   Q    Q    S  S  S E  E     +S
e|--------------------------------|-----------------------------------------|
B|--------------------------------|-----------------------------------------|
G|--------------------------------|-----------------------------------------|
D|--7---7---7-7s15-15--15-(15)s10-|-10---10---10-10s5-5--5--(5)s3-----------|
A|--7---7---7-7s15-15--15-(15)s10-|-10---10---10-10s5-5--5--(5)s3-----------|
E|--5---5---5-5s13-13--13-(13)s8--|-8----8----8--8-s3-3--3--(3)s1-----------|

                    Release Slowly
        P.M.-----------------------|
    Q   E  E  E  E  E  E     E  E  E  E  S  E  S  E  E     S  S  H  Q  E
e|------------------------|-----------------------------|-------------------|
B|------------------------|-----------------------------|-------------------|
G|--2---------------------|-----------------5-----5-----|-------------------|
D|--3---------3--3--3--3--|--3--3--3--3--5--5--5--5--5--|--7--7-------------|
A|--3---3--3--3--3--3--3--|--3--3--3--3--5--3--5--3--5--|--7--7-------------|
E|--1---1--1--1--1--1--1--|--1--1--1--1--3-(3)-3-(3)-3--|--5--5-------------|


     Wx2         Q      E     S    S    S  Q.   Q
e|---------|---------------------------------------------------------------||
B|---------|------------------x----x----x----------------------------------||
G|---------|----------------<12>-<12>-<12>-12---12s------------------------||
D|---------|------------------x----x----x--12---12s------------------------||
A|---------|-----------------10----x---10--10---10s------------------------||
E|---------|---------------------------------------------------------------||


 1st Verse:
 같같같같같
                                                 P.M.-----|       P.M.-----|
     Wx7      Q    E   S    S    S  Q.   Q       S S S S S  Q  E  S S S S S
e|---------|----------------------------------|-----------------------------|
B|---------|-----------x----x----x------------|o----------------------------|
G|---------|---------<12>-<12>-<12>-12---12s--|-----------------------------|
D|---------|-----------x----x----x--12---12s--|-----------------------------|
A|---------|----------10----x---10--10---10s--|o-5-7-7-7-7--------3-3-3-3-3-|
E|---------|----------------------------------|--3-5-5-5-5--------1-1-1-1-1-|

   1,2,3.                        4.
   P.M.-----|       P.M.-----|
   S S S S S  Q  E  S S S S S     S S S +S E  E  Q
e|-----------------------------|-------------------------------------------||
B|----------------------------o|-------------------------------------------||
G|-----------------------------|-------------------------------------------||
D|---5-5-5-5-------------------|----5-5----5--5--5-------------------------||
A|-3-3-3-3-3--------5-5-5-5-5-o|--3-3-3----3--5--5-------------------------||
E|-1----------------3-3-3-3-3--|--1-----------3--3-------------------------||


 Chorus:
 같같같
                                                                   4x
     Q   Q   S S S  E   S   +S  +S   Q    Q    S  S  S E  E     +S
e|---------------------------------|--------------------------------||
B|o--------------------------------|-------------------------------o||
G|---------------------------------|--------------------------------||
D|---7---7---7-7s15-15--15-(15)s10-|-10---10---10-10s5-5--5--(5)s7--||
A|o--7---7---7-7s15-15--15-(15)s10-|-10---10---10-10s5-5--5--(5)s7-o||
E|---5---5---5-5s13-13--13-(13)s8--|-8----8----8--8-s3-3--3--(3)s5--||


 2nd Verse:
 같같같같같

                             P.M.-----|       P.M.-----|
   E.  E  Q  H     Wx3       S S S S S  Q  E  S S S S S
e|-------------|----------|-----------------------------|
B|-------------|----------|o----------------------------|
G|-------------|----------|-----------------------------|
D|-7-----------|----------|-----------------------------|
A|-7-----------|----------|o-5-7-7-7-7--------3-3-3-3-3-|
E|-5-----------|----------|--3-5-5-5-5--------1-1-1-1-1-|

  1.                            2.
   P.M.-----|       P,M.-----|
   S S S S S  Q  E  S S S S S    S S S +S E  E  Q
e|-----------------------------|-----------------------||
B|----------------------------o|-----------------------||
G|-----------------------------|-----------------------||
D|---5-5-5-5-------------------|---5-5----5--5--5------||
A|-3-3-3-3-3--------5-5-5-5-5-o|-3-3-3----3--5--5------||
E|-1----------------3-3-3-3-3--|-1-----------3--3------||

 Chorus
 같같같
[ Tab from: http://www.guitartabs.cc/tabs/o/offspring/self_esteem_tab_ver_12.html ]
 Bridge:
 같같같
                       __________________________________________________________________
                      | 1,2,3.
    Q   Q   S S E  Q     Q   Q   S S E  E E     Q   Q   S S E  Q     Q  Q  S S E  S S S S
e|--------------------|----------------------|--------------------|------------------------|
B|o-------------------|----------------------|--------------------|-----------------------o|
G|--7---7---7s3-3--3--|------------5-5--5s7--|--7---7---7s3-3--3--|----------5-x--x-x-x-7--|
D|--7---7---7s3-3--3--|--3---3---3-5-5--5s7--|--7---7---7s3-3--3--|--3--3--3-5-x--x-x-x-7--|
A|o-5---5---5s1-1--1--|--3---3---3-3-3--3s5--|--5---5---5s1-1--1--|--3--3--3-3-x--x-x-x-5-o|
E|--------------------|--1---1---1-----------|--------------------|--1--1--1---------------|

  4.
    Q   Q   S S E  E E    Q   E  E  E  E  E  E     E  E  E  E  S  E  S  E  E     S S E Q H
e|---------------------|------------------------|-----------------------------|-----------|
B|---------------------|------------------------|-----------------------------|-----------|
G|--5---5---5----------|--2---------------------|-----------------5-----5-----|-----------|
D|--5---5---5-5-5--5s3-|--3---------3--3--3--3--|--3--3--3--3--5--5--5--5--5--|--7-7------|
A|--3---3---3-5-5--5s3-|--3---3--3--3--3--3--3--|--3--3--3--3--5--3--5--3--5--|--7-7------|
E|------------3-3--3s1-|--1---1--1--1--1--1--1--|--1--1--1--1--3-(3)-3-(3)-3--|--5-5------|

     Wx2         Q      E     S    S    S  Q.   Q
e|---------|---------------------------------------------------------------||
B|---------|------------------x----x----x----------------------------------||
G|---------|----------------<12>-<12>-<12>-12---12s------------------------||
D|---------|------------------x----x----x--12---12s------------------------||
A|---------|-----------------10----x---10--10---10s------------------------||
E|---------|---------------------------------------------------------------||

 3rd Verse:
 같같같같같
                                                 P.M.-----|       P.M.-----|
     Wx7      Q    E   S    S    S  Q.   Q       S S S S S  Q  E  S S S S S
e|---------|----------------------------------|-----------------------------|
B|---------|-----------x----x----x------------|o----------------------------|
G|---------|---------<12>-<12>-<12>-12---12s--|-----------------------------|
D|---------|-----------x----x----x--12---12s--|-----------------------------|
A|---------|----------10----x---10--10---10s--|o-5-7-7-7-7--------3-3-3-3-3-|
E|---------|----------------------------------|--3-5-5-5-5--------1-1-1-1-1-|

   1,2,3.                        4.
   P.M.-----|       P.M.-----|
   S S S S S  Q  E  S S S S S     S S S +S E  E  Q
e|-----------------------------|-------------------------------------------||
B|----------------------------o|-------------------------------------------||
G|-----------------------------|-------------------------------------------||
D|---5-5-5-5-------------------|----5-5----5--5--5-------------------------||
A|-3-3-3-3-3--------5-5-5-5-5-o|--3-3-3----3--5--5-------------------------||
E|-1----------------3-3-3-3-3--|--1-----------3--3-------------------------||

 Chorus
 같같같

 Ending:
 같같같
                       __________________________________________________________________
                      | 1,2,3.
    Q   Q   S S E  Q     Q   Q   S S E  E E     Q   Q   S S E  Q     Q  Q  S S E  S S S S
e|--------------------|----------------------|--------------------|------------------------|
B|o-------------------|----------------------|--------------------|-----------------------o|
G|--7---7---7s3-3--3--|------------5-5--5s7--|--7---7---7s3-3--3--|----------5-x--x-x-x-7--|
D|--7---7---7s3-3--3--|--3---3---3-5-5--5s7--|--7---7---7s3-3--3--|--3--3--3-5-x--x-x-x-7--|
A|o-5---5---5s1-1--1--|--3---3---3-3-3--3s5--|--5---5---5s1-1--1--|--3--3--3-3-x--x-x-x-5-o|
E|--------------------|--1---1---1-----------|--------------------|--1--1--1---------------|

                                          Release Slowly
  4.                          P.M.------------------------|
    Q   Q   S S E  E E    Q   E  E  E  E  E  E     E  E  E  E  S  E  S  E  E     S S E Q H
e|---------------------|------------------------|-----------------------------|-----------||
B|---------------------|------------------------|-----------------------------|-----------||
G|--5---5---5----------|--2---------------------|-----------------5-----5-----|-----------||
D|--5---5---5-5-5--5s3-|--3---------3--3--3--3--|--3--3--3--3--5--5--5--5--5--|--7-7------||
A|--3---3---3-5-5--5s3-|--3---3--3--3--3--3--3--|--3--3--3--3--5--3--5--3--5--|--7-7------||
E|------------3-3--3s1-|--1---1--1--1--1--1--1--|--1--1--1--1--3-(3)-3-(3)-3--|--5-5------||


Duration Legend
---------------
W - whole; H - half; Q - quarter; E - 8th; S - 16th; T - 32nd; X - 64th; a - acciaccatura
+ - note tied to previous; . - note dotted; .. - note double dotted
Uncapitalized letters represent notes that are staccato (1/2 duration)
Irregular groupings are notated above the duration line
Duration letters will always appear directly above the note/fret number it represents the
duration for.  Duration letters with no fret number below them represent rests.  Multi-
bar rests are notated in the form Wxn, where n is the number of bars to rest for.  Low
melody durations appear below the staff

Tablature Legend
----------------
 h   - hammer-on
 p   - pull-off
 b   - bend
 pb  - pre-bend
 r   - bend release (if no number after the r, then release immediately)
 /\  - slide into or out of (from/to "nowhere")
 s   - legato slide
 S   - shift slide
  - natural harmonic
[n]  - artificial harmonic
n(n) - tapped harmonic
 ~   - vibrato
 tr  - trill
 T   - tap
 TP  - trem. picking
 PM  - palm muting
\n/  - tremolo bar dip; n = amount to dip
 \n  - tremolo bar down
 n/  - tremolo bar up
/n\  - tremolo bar inverted dip
 =   - hold bend; also acts as connecting device for hammers/pulls
 <>  - volume swell (louder/softer)
 x   - on rhythm slash represents muted slash
 o   - on rhythm slash represents single note slash
(n)  - tied note

Misc Legend
-----------
 |  - bar
||  - double bar
||o - repeat start
o|| - repeat end
*|  - double bar (ending)
 :  - bar (freetime)
 $  - Segno
 &  - Coda
Tempo markers -  = BPM(8/16=s8/s16), where s8 = swing 8ths, s16 = swing 16ths


Feel free to send me any corrections.
Comments