Offspring - Self Esteem Chords & Tabs

 

Self Esteem Chords & Tabs

Offspring Chords & Tabs

Version: 8 Type: Bass Tab 0 ratings
1 star 2 stars 3 stars 4 stars 5 stars
comments

Self Esteem Bass Tab

                     Self Esteem                                   

Bass line, this is how i play it with the song and it sounds fine.

                                                                      
G||------------------|------------------|----------------------------|
D||------------------|------------------|--------------3-3-3--3--3-3-|
A||------------------|------------------|--0----0--0-0---------------|
E||------------------|------------------|----------------------------|


                                                          
----------------------------|----------------------------|
----------------------------|--------------3-3-3--3--3-3-|
--3----3--3-3---------------|--0----0--0-0---------------|
--------------3-3-3--3--3-3-|----------------------------|


                                                       
----------------------------|-------------------------|
----------------------------|-------------------------|
--3----3--3-3---------------|-------------------------|
--------------3-3-3--3--3-3-|--1----1--1--1--1--1--1--|


                                                          
----------------------------|--2-2-2-2-2-------2---------|
----------------------------|--------------------3-3-3-3-|
------------------3----3----|----------------------------|
--1--1--1--1--1-3----3----3-|----------------------------|


                                                          
--5-5-5-5-5-------5---------|--2-2-2-2-2-------2---------|
--------------------5-5-5-5-|--------------------3-3-3-3-|
----------------------------|----------------------------|
----------------------------|----------------------------|


                                                         
--5-5-5-5-5----------------|--2-2-2-2-2-------2---------|
---------------5---5---5-5-|--------------------3-3-3-3-|
---------------------------|----------------------------|
---------------------------|----------------------------|


                                                          
--5-5-5-5-5-------5---------|--2-2-2-2-2-------2---------|
--------------------5-5-5-5-|--------------------3-3-3-3-|
----------------------------|----------------------------|
----------------------------|----------------------------|


                                                          
--5-5-5-5-5-------5---------|--2-2-2-2-2-------2---------|
--------------------5-5-5-5-|--------------------3-3-3-3-|
----------------------------|----------------------------|
----------------------------|----------------------------|


                                                          
--5-5-5-5-5-------5---------|--2-2-2-2-2-------2---------|
--------------------5-5-5-5-|--------------------3-3-3-3-|
----------------------------|----------------------------|
----------------------------|----------------------------|


                                                         
--5-5-5-5-5----------------|--2-2-2-2-2-------2---------|
---------------5---5---5-5-|--------------------3-3-3-3-|
---------------------------|----------------------------|
---------------------------|----------------------------|


                                                          
--5-5-5-5-5-------5---------|--2-2-2-2-2-------2---------|
--------------------5-5-5-5-|--------------------3-3-3-3-|
----------------------------|----------------------------|
----------------------------|----------------------------|


                                                          
--5-5-5-5-5-------5---------|--2-2-2-2-2-------2---------|
--------------------5-5-5-5-|--------------------3-3-3-3-|
----------------------------|----------------------------|
----------------------------|----------------------------|


                                                          
--5-5-5-5-5-------5---------|--2-2-2-2-2-------2---------|
--------------------5-5-5-5-|--------------------3-3-3-3-|
----------------------------|----------------------------|
----------------------------|----------------------------|


                                                          
----------------------------|----------------------------|
----------------------------|--------------3-3-3--3--3-3-|
--3----3--3-3---------------|--0----0--0-0---------------|
--------------3-3-3--3--3-3-|----------------------------|


                                                          
----------------------------|----------------------------|
----------------------------|--------------3-3-3--3--3-3-|
--3----3--3-3---------------|--0----0--0-0---------------|
--------------3-3-3--3--3-3-|----------------------------|


                                                          
----------------------------|----------------------------|
----------------------------|--------------3-3-3--3--3-3-|
--3----3--3-3---------------|--0----0--0-0---------------|
--------------3-3-3--3--3-3-|----------------------------|


                                                          
----------------------------|----------------------------|
----------------------------|--------------3-3-3--3--3-3-|
--3----3--3-3---------------|--0----0--0-0---------------|
--------------3-3-3--3--3-3-|----------------------------|


                                                          
----------------------------|--2-2-2-2-2-------2---------|
----------------------------|--------------------3-3-3-3-|
--3----3--3-3---------------|----------------------------|
--------------3-3-3--3--3-3-|----------------------------|


                                                          
--5-5-5-5-5-------5---------|--2-2-2-2-2-------2---------|
--------------------5-5-5-5-|--------------------3-3-3-3-|
----------------------------|----------------------------|
----------------------------|----------------------------|


                                                          
--5-5-5-5-5-------5---------|--2-2-2-2-2-------2---------|
--------------------5-5-5-5-|--------------------3-3-3-3-|
----------------------------|----------------------------|
----------------------------|----------------------------|


                                                          
--5-5-5-5-5-------5---------|--2-2-2-2-2-------2---------|
--------------------5-5-5-5-|--------------------3-3-3-3-|
----------------------------|----------------------------|
----------------------------|----------------------------|


                                                          
----------------------------|----------------------------|
----------------------------|--------------3-3-3--3--3-3-|
--3----3--3-3---------------|--0----0--0-0---------------|
--------------3-3-3--3--3-3-|----------------------------|


                                                          
----------------------------|----------------------------|
----------------------------|--------------3-3-3--3--3-3-|
--3----3--3-3---------------|--0----0--0-0---------------|
--------------3-3-3--3--3-3-|----------------------------|


                                                          
----------------------------|----------------------------|
----------------------------|--------------3-3-3--3--3-3-|
--3----3--3-3---------------|--0----0--0-0---------------|
--------------3-3-3--3--3-3-|----------------------------|


                                                          
----------------------------|----------------------------|
----------------------------|--------------3-3-3--3--3-3-|
--3----3--3-3---------------|--0----0--0-0---------------|
--------------3-3-3--3--3-3-|----------------------------|


                                                          
----------------------------|----------------------------|
----------------------------|--0----0--0-0---------------|
--3----3--3-3---------------|--------------1-1-1--1--1-1-|
--------------3-3-3--3--3-3-|----------------------------|


                                                          
----------------------------|----------------------------|
----------------------------|--0----0--0-0---------------|
--------------3-3-3--3--3-3-|--------------1-1-1--1--1-1-|
--1----1--1-1---------------|----------------------------|

[ Tab from: http://www.guitartabs.cc/tabs/o/offspring/self_esteem_btab_ver_8.html ]
                                                            
------------------------------|----------------------------|
------------------------------|--0----0--0-0---------------|
--------------3-3-3-3-3-3-3-3-|--------------1-1-1--1--1-1-|
--1----1--1-1-----------------|----------------------------|


                                                          
----------------------------|----------------------------|
----------------------------|--0----0--0-0---------------|
--------------3-3-3--3--3-3-|--------------1-1-1--1--1-1-|
--1----1--1-1---------------|----------------------------|


                                                            
------------------------------|----------------------------|
------------------------------|--0----0--0-0---------------|
--------------3-3-3-3-3-3-3-3-|--------------1-1-1--1--1-1-|
--1----1--1-1-----------------|----------------------------|


                                                          
----------------------------|----------------------------|
----------------------------|--0----0--0-0---------------|
--------------3-3-3--3--3-3-|--------------1-1-1--1--1-1-|
--1----1--1-1---------------|----------------------------|


                                                            
------------------------------|----------------------------|
------------------------------|--0----0--0-0---------------|
--------------3-3-3-3-3-3-3-3-|--------------1-1-1--1--1-1-|
--1----1--1-1-----------------|----------------------------|


                                                       
----------------------------|-------------------------|
----------------------------|-------------------------|
--3----3--3-3---------------|-------------------------|
--------------3-3-3--3--3-3-|--1----1--1--1--1--1--1--|


                                                          
----------------------------|--2-2-2-2-2-------2---------|
----------------------------|--------------------3-3-3-3-|
------------------3----3----|----------------------------|
--1--1--1--1--1-3----3----3-|----------------------------|


                                                          
--5-5-5-5-5-------5---------|--2-2-2-2-2-------2---------|
--------------------5-5-5-5-|--------------------3-3-3-3-|
----------------------------|----------------------------|
----------------------------|----------------------------|


                                                         
--5-5-5-5-5----------------|--2-2-2-2-2-------2---------|
---------------5---5---5-5-|--------------------3-3-3-3-|
---------------------------|----------------------------|
---------------------------|----------------------------|


                                                          
--5-5-5-5-5-------5---------|--2-2-2-2-2-------2---------|
--------------------5-5-5-5-|--------------------3-3-3-3-|
----------------------------|----------------------------|
----------------------------|----------------------------|


                                                          
--5-5-5-5-5-------5---------|--2-2-2-2-2-------2---------|
--------------------5-5-5-5-|--------------------3-3-3-3-|
----------------------------|----------------------------|
----------------------------|----------------------------|


                                                          
--5-5-5-5-5-------5---------|--2-2-2-2-2-------2---------|
--------------------5-5-5-5-|--------------------3-3-3-3-|
----------------------------|----------------------------|
----------------------------|----------------------------|


                                                         
--5-5-5-5-5----------------|--2-2-2-2-2-------2---------|
---------------5---5---5-5-|--------------------3-3-3-3-|
---------------------------|----------------------------|
---------------------------|----------------------------|


                                                          
--5-5-5-5-5-------5---------|--2-2-2-2-2-------2---------|
--------------------5-5-5-5-|--------------------3-3-3-3-|
----------------------------|----------------------------|
----------------------------|----------------------------|


                                                          
--5-5-5-5-5-------5---------|--2-2-2-2-2-------2---------|
--------------------5-5-5-5-|--------------------3-3-3-3-|
----------------------------|----------------------------|
----------------------------|----------------------------|


                                                          
--5-5-5-5-5-------5---------|--2-2-2-2-2-------2---------|
--------------------5-5-5-5-|--------------------3-3-3-3-|
----------------------------|----------------------------|
----------------------------|----------------------------|


                                                          
----------------------------|----------------------------|
----------------------------|--------------3-3-3--3--3-3-|
--3----3--3-3---------------|--0----0--0-0---------------|
--------------3-3-3--3--3-3-|----------------------------|


                                                          
----------------------------|----------------------------|
----------------------------|--------------3-3-3--3--3-3-|
--3----3--3-3---------------|--0----0--0-0---------------|
--------------3-3-3--3--3-3-|----------------------------|


                                                          
----------------------------|----------------------------|
----------------------------|--------------3-3-3--3--3-3-|
--3----3--3-3---------------|--0----0--0-0---------------|
--------------3-3-3--3--3-3-|----------------------------|


                                                          
----------------------------|----------------------------|
----------------------------|--------------3-3-3--3--3-3-|
--3----3--3-3---------------|--0----0--0-0---------------|
--------------3-3-3--3--3-3-|----------------------------|


                                                          
----------------------------|----------------------------|
----------------------------|--0----0--0-0---------------|
--3----3--3-3---------------|--------------1-1-1--1--1-1-|
--------------3-3-3--3--3-3-|----------------------------|


                                                          
----------------------------|----------------------------|
----------------------------|--0----0--0-0---------------|
--------------3-3-3--3--3-3-|--------------1-1-1--1--1-1-|
--1----1--1-1---------------|----------------------------|


                                                            
------------------------------|----------------------------|
------------------------------|--0----0--0-0---------------|
--------------3-3-3-3-3-3-3-3-|--------------1-1-1--1--1-1-|
--1----1--1-1-----------------|----------------------------|


                                                          
----------------------------|----------------------------|
----------------------------|--0----0--0-0---------------|
--------------3-3-3--3--3-3-|--------------1-1-1--1--1-1-|
--1----1--1-1---------------|----------------------------|


                                                            
------------------------------|----------------------------|
------------------------------|--0----0--0-0---------------|
--------------3-3-3-3-3-3-3-3-|--------------1-1-1--1--1-1-|
--1----1--1-1-----------------|----------------------------|


                                                          
----------------------------|----------------------------|
----------------------------|--0----0--0-0---------------|
--------------3-3-3--3--3-3-|--------------1-1-1--1--1-1-|
--1----1--1-1---------------|----------------------------|


                                                            
------------------------------|----------------------------|
------------------------------|--0----0--0-0---------------|
--------------3-3-3-3-3-3-3-3-|--------------1-1-1--1--1-1-|
--1----1--1-1-----------------|----------------------------|


                                                       
----------------------------|-------------------------|
----------------------------|-------------------------|
--3----3--3-3---------------|-------------------------|
--------------3-3-3--3--3-3-|--1----1--1--1--1--1--1--|


                                                  
----------------------------|--2----------------||
----------------------------|-------------------||
------------------3----3----|-------------------||
--1--1--1--1--1-3----3----3-|-------------------||
Comments