Offspring - Self Esteem Chords & Tabs

 

Self Esteem Chords & Tabs

Offspring Chords & Tabs

Version: 7 Type: Bass Tab 0 ratings
1 star 2 stars 3 stars 4 stars 5 stars
comments

Self Esteem Bass Tab

   
-------------------------------------------------------------------------------
			   SELF ESTEEM - The Offspring
-------------------------------------------------------------------------------

Tabbed by: AM's bassist
Tuning: E, A, D, G

Intro: 
G|-----------------------------------|
D|-----------------------------------|
A|-----8-8-8-8-8-8--3-3--------------|
E|-5-5------------------3-3-3-3-3-3--|
[ Tab from: http://www.guitartabs.cc/tabs/o/offspring/self_esteem_btab_ver_7.html ]
Verse:
G|-----------------------------------------------------|
D|-0-0-0-0-0-0-----------------------------------------|
A|-------------12-12-12-12-12--7-7-7-7-7-7--9-9-9-9-9--|
E|-----------------------------------------------------|

Chorus:
G|------------------------------------|
D|------------------------------------|
A|-5-5--------------1-1--3-3-3-3-3-3--|
E|-----1-1-1-1-1-1--------------------|

**Note - The intro is the same as the part where he goes, "Whoa-a o yeah-hah,
yeah, hah hah, whoa yeah-hah, yeah-hah..."
Comments