Offspring - Self Esteem Chords & Tabs

 

Self Esteem Chords & Tabs

Offspring Chords & Tabs

Version: 5 Type: Bass Tab 1 rating
1 star 2 stars 3 stars 4 stars 5 stars
comments

Self Esteem Bass Tab

The Offspring-Self Esteem

Intro:

G:----------------------------------------------
D:----------------------------------------------
A:-------8-8-8---------------------------------
E:--5-5---------8-8-3-3-3--------------------

Verse:

G:----------------------------------------------------------
D:----------------------------------------------------------
A:-----------------3-3-3-3----------------------------------
E:-5-5-5-5--1-1-1---------3-3-3-3---------------------------

Chorus:
[ Tab from: http://www.guitartabs.cc/tabs/o/offspring/self_esteem_btab_ver_5.html ]
G:------------------------------------------------------------------
D:------------------------------------------------------------------
A:-5-5-1-1-1-----------3-3-5-5-1-1-1----------3-3-3-3---------------
E:--------------1-1-1------------------1-1-1------------------------

This is how I play it the chorus part is hard to play over and over 
again (considering I sing in my band and I’m a begginer). 
They play the verse a lot too. Hope you like, any 
comments/suggestions/correections e-mail: WindShrieker@aol.com
Comments