Offspring - Self Esteem Chords & Tabs

 

Self Esteem Chords & Tabs

Offspring Chords & Tabs

Version: 4 Type: Bass Tab 1 rating
1 star 2 stars 3 stars 4 stars 5 stars
comments

Self Esteem Bass Tab

                             SELF ESTEEM

Artist: Offspring
Song: Self Esteem


Intro                             x3
G|----------------------------------|
D|----------------------------------|
A|----------------------------------|
E|4-4-4--12-12-7-7-7-2-2------------|

Pre-Verse                         x2
G|----------------------------------|
D|----------------------------------|
A|----------------------------------|
E|44444--0000--77777-2222-----------|
[ Tab from: http://www.guitartabs.cc/tabs/o/offspring/self_esteem_btab_ver_4.html ]
Verse1                                              x3
G|-------------------------------------------------|
D|-------------------------------------------------|
A|-------------------------3-3-3-3-3---------------|
E|-5-5-5-5-5---1-1-1-1-1-1-------------3-3-3-3-3-3-|
 
G|-------------------------------------------------|
D|-------------------------------------------------|
A|-------------------------3-3-3-3-3---------------|
E|-5-5-5-5-5---1-1-1-1-1-1-------------1-1-0-3-0-3-|
                                                    x3
G|-------------------------------------------------|
D|-------------------------------------------------|
A|-------------------------3-3-3-3-3---------------|
E|-5-5-5-5-5---1-1-1-1-1-1-------------3-3-3-3-3-3-|
 
G|---------------------------------------------------------|
D|---------------------------------------------------------|
A|-------------------------3-3-3-3-3-3-3-3-----------------|
E|-5-5-5-5-5---1-1-1-1-1-1-----------------3-3-3-3-3-3-3-3-|


That was all i could find out so just try it out 
and mail me if somethings wrong about it.........   

my e-mail is: nonni_toni@hotmail.com        
Comments