Offspring - Self Esteem Chords & Tabs

 

Self Esteem Chords & Tabs

Offspring Chords & Tabs

Version: 3 Type: Bass Tab 0 ratings
1 star 2 stars 3 stars 4 stars 5 stars
comments

Self Esteem Bass Tab

   
Song: Self-Esteem
Artist: The Offspring
Album: Smash
Length: 4:15
For: Bass
Tabbed by: BK


Key:
p.m. - palm mute
/ - slide up
\ - slide down
^ - bend up
v - bend down
x - pick scrape
h - hammer-on
p - pull-off
( ) - hold note

Regular tuning (E-A-D-G)


Intro
G-------------------------------------------------------------
D-------------------------------------------------------------
A--------------8-8-8--3--3-33----------------8-8-8--3--3-3-3--
E-3-3-5--5-55-----------------3-3/5--5-5-55------------------3-3-3-1--1-1-1-1-1-1-1-1-1-1-1-1-3-1-3-1-

[ Tab from: http://www.guitartabs.cc/tabs/o/offspring/self_esteem_btab_ver_3.html ]
Verse
G--------------------------------------------------------------
D--------------------------------------------------------------
A--------------------------------------------------------------
E-5-5-5-5-5---1-1-1-1-1-1-8-8-8-8-8---3-3-3-3-3-3-(*1-3-1-3)
                                                   *only play on second and sixth time                                
                                                    exept for 2nd verse and instead of     
                                                    3-3-3-3-3)
Chorus
G-------------------------------------------------------------
D-------------------------------------------------------------
A----------8-8-8--3--3-33----------------8-8-8--3--3-3-3------
E-5--5-55-----------------3-3/5--5-5-55------------------3-3/5


Bridge
G------------------------------------------------------------
D--------------------------------===-------------------------
A-5-5--1-1-------3-3--5-5--1-1-------3-3-3(*5-5--1-1--3-3--)
E-----------1-1-----------------1-1-------(*---------------3-3--1--1-1-1-1-1-1-1-1-1-1-1-1-3-1-3-*)

* = only played on last time

Order:
intro        1x       (0:05-0:18)
verse       10x       (0:19-1:04)
chorus       4x       (1:05-1:22)
verse        4x       (1:23-1:40)
chorus       4x       (1:41-1:59)
bridge       7x       (2:00-2:35)
verse       10x       (2:36-3:19)
chorus       4x       (3:20-3:39)
bridge       7x       (3:40-4:15)
                                      and that's it.
Comments