Offspring - Self Esteem Chords & Tabs

 

Self Esteem Chords & Tabs

Offspring Chords & Tabs

Version: 2 Type: Bass Tab 1 rating
1 star 2 stars 3 stars 4 stars 5 stars
comments

Self Esteem Bass Tab

   
Artist: The Offspring
Title: Self Esteem
Album: Smash
 
 
Sers, This is the Tab of Offspring's self esteem
the earlier tab by
   Ilan Galiani 
(LHDALIA@weizmann.ac.il)
was quite good,
but it was not complete, so I made it complete
Just listen to the intro and you'll get the 
rythm very fast. So have fun and enjoy playing
that great song!
 
tabbed by: Felix Kiesewtter (themaster@ironmaiden.com)
 
 
BASS TAB
 
Normal tuning (E,A,D,G)
tabed by Ilan Galiani                  

LHDALIA@weizmann.weizmann.ac.il


Intro                                x2
G|----------------------------------|
D|----------------------------------|
A|-----------8-8-8------------------|
E|-5--5--5-5--------8--8--8-8-3-3-3-|
 
G|----------------------------------|
D|----------------------------------|
A|----------------------------------|
E|-1-1--1-1-1-1-1-1-1-1-1-1-0-3-0-3-|
 

pre-verse
G|-------------------------------------------------|
D|-------------------------------------------------|
A|-------------------------3-3-3-3-3---------------|
E|-5-5-5-5-5---1-1-1-1-1-1-------------3-3-3-3-3-3-|
 
G|-------------------------------------------------|
D|-------------------------------------------------|
A|-------------------------3-3-3-3-3---------------|
E|-5-5-5-5-5---1-1-1-1-1-1-------------1-1-0-3-0-3-|
 
[ Tab from: http://www.guitartabs.cc/tabs/o/offspring/self_esteem_btab_ver_2.html ]
Verse1                                              x3
G|-------------------------------------------------|
D|-------------------------------------------------|
A|-------------------------3-3-3-3-3---------------|
E|-5-5-5-5-5---1-1-1-1-1-1-------------3-3-3-3-3-3-|
 
G|-------------------------------------------------|
D|-------------------------------------------------|
A|-------------------------3-3-3-3-3---------------|
E|-5-5-5-5-5---1-1-1-1-1-1-------------1-1-0-3-0-3-|
                                                    x3
G|-------------------------------------------------|
D|-------------------------------------------------|
A|-------------------------3-3-3-3-3---------------|
E|-5-5-5-5-5---1-1-1-1-1-1-------------3-3-3-3-3-3-|
 
G|---------------------------------------------------------|
D|---------------------------------------------------------|
A|-------------------------3-3-3-3-3-3-3-3-----------------|
E|-5-5-5-5-5---1-1-1-1-1-1-----------------3-3-3-3-3-3-3-3-|
 

pre-chorus
G|----------------------------------|
D|----------------------------------|
A|-----------8-8-8------------------|
E|-5--5--5-5--------8--8--8-8-3-3-3-|
 

Verse2                                              x3
G|-------------------------------------------------|
D|-------------------------------------------------|
A|-------------------------3-3-3-3-3---------------|
E|-5-5-5-5-5---1-1-1-1-1-1-------------3-3-3-3-3-3-|
 
G|---------------------------------------------------------|
D|---------------------------------------------------------|
A|-------------------------3-3-3-3-3-3-3-3-----------------|
E|-5-5-5-5-5---1-1-1-1-1-1-----------------3-3-3-3-3-3-3-3-|
 

chorus
G|-------------------------------|
D|-------------------------------|
A|-5--5--1-1-1-1---------3-3-3-3-|
E|-----------------1--1----------|
 
G|---------------------------------------|
D|---------------------------------------|
A|-5--5--1-1-1-1---------3-3-3-3-3-3-3-3-|
E|-----------------1--1------------------|
 

post-chorus
G|-------------------------------|
D|-------------------------------|
A|-5--5--1-1-1-1---------3-3-3-3-|
E|-----------------1--1----------|
 
G|----------------------------------|
D|----------------------------------|
A|----------------------------------|
E|-1-1--1-1-1-1-1-1-1-1-1-1-0-3-0-3-|
 
 
 
structure:
Intro
pre-verse
Verse1
pre-chorus x4
Verse2
pre-chorus x4
chorus x3
post-chorus
pre-verse
Verse1
pre-chorus x4
chorus x3
post-chorus
 
END

Comments