Offspring - Race Against Myself Chords & Tabs

 

Race Against Myself Chords & Tabs

Offspring Chords & Tabs

Version: 2 Type: Tab 0 ratings
1 star 2 stars 3 stars 4 stars 5 stars
comments

Race Against Myself Tab

Artist: The Offspring
Title: Race Against Myself
Album: Splinter
Tabber: danc446 (@yahoo.com)

VERSE
e|-----------------------------------------------------------|
B|-----------------------------------------------------------|
G|---8-8-8-8-8-8-8-8-----------------4-4-4-4-11-11-11-11-8-8-|
D|---8-8-8-8-8-8-8-8-6-6-6-6-6-6-6-6-4-4-4-4-11-11-11-11-8-8-|
A|---6-6-6-6-6-6-6-6-6-6-6-6-6-6-6-6-2-2-2-2--9--9--9--9-6-6-|
E|-------------------4-4-4-4-4-4-4-4-------------------------|
Pm   *********************************************************

CHORUS
e|-----------------------------|
B|-----------------------------|
G|--8-8-8-8-8-8-8-8-11:---6:---|
D|--8-8-8-8-8-8-8-8-11:---6:---| x2
A|--6-6-6-6-6-6-6-6--9:---4:---|
E|-----------------------------|
[ Tab from: http://www.guitartabs.cc/tabs/o/offspring/race_against_myself_tab_ver_2.html ]
e|-----------------------------------------------------------------|
B|-----------------------------------------------------------------|
G|--8-8-8-8-8-8-8-8---------------------------------5-5-5-7-7-7--8-|
D|--8-8-8-8-8-8-8-8-4-4-4-4-4-4-4-4-6-6-6-6-6-6-6-6-5-5-5-7-7-7--8-|
A|--6-6-6-6-6-6-6-6-4-4-4-4-4-4-4-4-6-6-6-6-6-6-6-6-3-3-3-5-5-5--6-|
E|------------------2-2-2-2-2-2-2-2-4-4-4-4-4-4-4-4----------------|
w/ pm 

BRIDGE
Part 1
e|--------------------------------------------------|
B|--------------------------------------------------|
G|--8-8-8---------------4-4-4----8-8-8-8--8-8-8-8---|
D|--8-8-8-----6-6-6-----4-4-4----8-8-8-8--8-8-8-8---|
A|--6-6-6-----6-6-6-----2-2-2----6-6-6-6--6-6-6-6---|
E|------------4-4-4---------------------------------|

Part 2
e|----------------------------------------------------|
B|----------------------------------------------------|
G|---8-8-8-8-8-----------4-4-4-4-4-8-8-8-8--8-8-8-8---|
D|---8-8-8-8-8-6-6-6-6-6-4-4-4-4-4-8-8-8-8--8-8-8-8---|
A|---6-6-6-6-6-6-6-6-6-6-2-2-2-2-2-6-6-6-6--6-6-6-6---|
E|-------------4-4-4-4-4------------------------------|
Comments