Offspring - Race Against Myself Chords & Tabs

 

Race Against Myself Chords & Tabs

Offspring Chords & Tabs

Version: 1 Type: Tab 0 ratings
1 star 2 stars 3 stars 4 stars 5 stars
comments

Race Against Myself Tab

   
-------------------------------------------------------------------------------
		   RACE AGAINST MYSELF - The Offspring
-------------------------------------------------------------------------------
Tabbed by:Rafa88offspring
Email:rafa88offspring@hotmail.com

Tuning:standard (EADgbe)

Intro
Guitar 1
e|------------------------------------------|
B|------------------------------------------|
G|-11-11-11-11-11-11-11-13-14-16-14-13-9-9--| x3
D|-x--x--x--x--x--x--x--x--x--x--x--x--x-x--|
A|-9--9--9--9--9--9--9--11-12-14-12-11-7-7--|
E|------------------------------------------|

e|--------------------------------------------------|
B|---------------------------14--15-14-12-----------|
G|-11-11-11-11-11-7-7-7-7-7---------------14-13-----|
D|-x--x--x--x--x--x-x-x-x-x---------------------14--|
A|-9--9--9--9--9--5-5-5-5-5-------------------------|
E|--------------------------------------------------|

Guitar 2
strum this chords
e|-------------|
B|-------------|
G|----7--------| x4
D|-4--7--7--2--|
A|-4--5--7--2--|
E|-2-----5--0--|

Bridge
Guitar 1
e|-----------------------------------------------------------|
B|-----------------------------------------------------------|
G|--9/-11--11-11-11-11-11-11-11-11-11-11-9-9-9-9-9-9-9-9-9-9-|
D|--9/-11--11-11-11-11-11-11-11-11-11-11-9-9-9-9-9-9-9-9-9-9-|
A|--7/-9---9--9--9--9--9--9--9--9--9--9--7-7-7-7-7-7-7-7-7-7-|
E|-----------------------------------------------------------|
PM         .     .     .     .  .        .   .   .   . .

[ Tab from: http://www.guitartabs.cc/tabs/o/offspring/race_against_myself_tab.html ]
Guitar 2
e|------------------------------------------------|
B|------------------------------------------------|
G|------------------------------------------------|
D|--7/-9--9-9-9-9-9-9-9-9-9-9-7-7-7-7-7-7-7-7-7-7-|
A|--7/-9--9-9-9-9-9-9-9-9-9-9-7-7-7-7-7-7-7-7-7-7-|
E|--5/-7--7-7-7-7-7-7-7-7-7-7-5-5-5-5-5-5-5-5-5-5-|
PM        .   .   .   . .     .   .   .   . .

Verse
Guitar 1 (Palm Muted)
e|-----------------|
B|-----------------|
G|--11------9------|
D|--11-x12--9-x12--|
A|--9-------7------|
E|-----------------|

Guitar 2 (I can't tab this one because it doesn't sound very clear)

Chorus (same as Intro)

Play Bridge gain

Then Verse

Then Chorus

Interlude
Guitar 1 (Fast Palm muting)
e|---------------------------------------------------|
B|---------------------------------------------------|
G|--11-11-11-11-11-11-11-11-11-11-11-11--------------|
D|--x--x--x--x--x--x--x--x--x--x--x--x---------------|
A|--9--9--9--9--9--9--9--9--9--9--9--9---11-10-7/-9--|
E|---------------------------------------9--8--5/-7--|
PM  .  .     .  .     .  .     .  .  .
 
e|---------------------------------------------|
B|---------------------------------------------|
G|--11-11-11-11-11-11-11-11-11-11-11-11--------|
D|--x--x--x--x--x--x--x--x--x--x--x--x---------|
A|--9--9--9--9--9--9--9--9--9--9--9--9---7--9--|
E|---------------------------------------5--7--|
PM  .  .     .  .     .  .     .  .  .

Chorus

Bridge x2

End With

Guitar 1
e|------|
B|------|
G|--11--|
D|--x---|
A|--9---|
E|------|

Guitar 2
e|-----|
B|-----|
G|--9--|
D|--9--|
A|--7--|
E|-----|

| /  slide up
| \  slide down
| h  hammer-on
| p  pull-off
| ~  vibrato
| +  harmonic
| x  Mute note
===============================================================================
Comments