Offspring - Pretty Fly For A White Guy Chords & Tabs

 

Pretty Fly For A White Guy Chords & Tabs

Offspring Chords & Tabs

Version: 9 Type: Tab 0 ratings
1 star 2 stars 3 stars 4 stars 5 stars
comments

Pretty Fly For A White Guy Tab

intro
e:----------------------------------------------------------
b:----------------------------------------------------------
g:----------------------------------------------------------
d:--4-4-2---2-4-4-2-9-7-------------------------------------
a:--2-2-0-4-0-2-2-0-7-5-------------------------------------
e:--------2-------------------------------------------------

verse
e:---------
b:---------
g:---------
d:--4-x-4--
a:--2-x-2--
e:---------

bridge 1
e:----------------------------------------------------------
b:----------------------------------------------------------
g:----------------------------------------------------------
d:--4-4-10/11-10/11-4-4-10/11-10/11-4-4-2-2-4-4-9-9-9-9-7-4-
a:--2-2--8/9---8/9--2-2--8/9---8/9--2-2-0-0-2-2-7-7-7-7-5-2-
e:----------------------------------------------------------
[ Tab from: http://www.guitartabs.cc/tabs/o/offspring/pretty_fly_for_a_white_guy_tab_ver_9.html ]
e:----------------------------------------------------------
b:----------------------------------------------------------
g:----------------------------------------------------------
d:--4-4-10/11-10/11-4-4-10/11-10/11-4-4-2-2-4-4-9-9-9-9-10--
a:--2-2--8/9---8/9--2-2--8/9---8/9--2-2-0-0-2-2-7-7-7-7-8---
e:----------------------------------------------------------

e:---------
b:---------
g:---------
d:--11-9-7-
a:--9--7-5-
e:---------

e:----------------------------------------------------------
b:----------------------------------------------------------
g:----------------------------------------------------------
d:--4-4-10/11-10/11-4-4-10/11-10/11-4-4-2-2-4-4-9-9-9-9-7-4-
a:--2-2--8/9---8/9--2-2--8/9---8/9--2-2-0-0-2-2-7-7-7-7-5-2-
e:----------------------------------------------------------

bridge 2
e:----------------------------------------------------------
b:----------------------------------------------------------
g:----------------------------------------------------------
d:--11-11-7-11-9-9-9-9-9-9-11-11-10-10-9-9-7-7-4------------
a:---9--9-5--9-7-7-7-7-7-7--9--9--8--8-7-7-5-5-2------------
e:----------------------------------------------------------

then repeat it all 

bridge 3
e:----------
b:----------
g:----------
d:--4--2-4--
a:--2--0-2--
e:----------

do that a couple of times then repeat intro through bridge 2 without the verse and your done

so it should go like this
intro 
verse
bridge 1
bridge 2
intro
verse
bridge 1
bridge 2
bridge 3
intro
bridge 1
bridge 2
Comments