Offspring - Pretty Fly For A White Guy Chords & Tabs

 

Pretty Fly For A White Guy Chords & Tabs

Offspring Chords & Tabs

Version: 6 Type: Tab 0 ratings
1 star 2 stars 3 stars 4 stars 5 stars
comments

Pretty Fly For A White Guy Tab

i think this is the 100% correct version.
                  Enjoy.
/=slide                    
intro:                 
|----------------------------------------------------------|
|----------------------------------------------------------|
|------------------4-4-/-9---7-----------------------------|
|---9-9---4---7----4-4---9---7-repeatx2--------------------|
|---9-9---4---7----2-2---7---5-----------------------------|
|---7-7---2---5--------------------------------------------|
[ Tab from: http://www.guitartabs.cc/tabs/o/offspring/pretty_fly_for_a_white_guy_tab_ver_6.html ]
i think this plays throughout the whole verse.
verse:
|----------------------------------------------------------|
|-12-12-12-12-12-12-12-12----------------------------------|
|-11-11-11-11-11-11-11-11-etc------------------------------|
|----------------------------------------------------------|
|----------------------------------------------------------|
|----------------------------------------------------------|
it's kinda hard just to get along today....


the chorus should b rite.

|----------------------------------------------------------|
|----------------------------------------------------------|
|---------10---11--10---11---------------------------------|
|---9-9---10-/-11--10-/-11-------repeat-x2-----------------|
|---9-9----8----9---8----9---------------------------------|
|---7-7----------------------------------------------------|

thats about all i know. ope it wrked out well. ne questions, just e mail me  @    supergreg_mrmuscle@hotmail.com
Comments