Offspring - Pretty Fly For A White Guy Chords & Tabs

 

Pretty Fly For A White Guy Chords & Tabs

Offspring Chords & Tabs

Version: 5 Type: Tab 0 ratings
1 star 2 stars 3 stars 4 stars 5 stars
comments

Pretty Fly For A White Guy Tab

Artist: The offspring
Title: Pretty Fly
Tabbed by: Patrick L.   

There were no decent tabs for this song, so i spent an agonous 30min or so typing
this up in readable format. One thing to note is that the number of chords typed
may not be the exact number of chords played, get me? I mean I have just given the 
basic chord, and not the actual timing for changing...Have Fun  

/  -  slide up
\  -  slide down

Intro/Bridge:
|---------------------------|
|---------------------------|
|--4--------------9-\-7--7--|
|--4---4-/-7-/-9--9-\-7--7--|
|--2---4-/-7-/-9--7-\-5--2--|
|------2-/-5-/-7------------|


Verses:               For 2nd guitar:
|---7-----7----7--|    |----------------------|
|---7-----7----7--|    |----------------------|
|-----------------|    |----------------------|
|-----------------|    |----------------------|
|-----------------|    |--2----------7--5--2--|
|-----------------|    |----2--5--7-----------|
(repeat that a 
bunch of times...)
[ Tab from: http://www.guitartabs.cc/tabs/o/offspring/pretty_fly_for_a_white_guy_tab_ver_5.html ]
Chorus: (hard)
|------------------|------------------|
|------------------|------------------|
|-----10/11--10/11-|-77-------9--7--9-|
|--99-10/11--10/11-|-77--7-7--9--7--9-|
|--99--8/-9---8/-9-|-55--7-7--7--5--7-|
|--77--------------|-----5-5----------| repeat x2
(repeat measure)

Ending of chorus:
|------------------------|
|------------------------|
|------12--14------------|
|--9---12--14--99-99999--|
|--9---10--12--99-99999--|
|--7-----------77-77777--|

In the 3rd verse:
          |-----|                   |---|
          |-----|                   |---|
          |-----|                   |---|
          |--9--|                   |-9-|
          |--9--|                   |-9-|
          |--7--|                   |-7-|
..and he's trying too hard, but he's not quite hip

End with:
      |--------------|       |--------|
      |--------------|       |--------|
      |-12---14---12-|       |--------|
      |-12---14---12-|       |----9---|
      |-10---12---10-|       |----9---|
      |--------------|       |----7---|
The worlds needs wannabe's..   Hey! Hey do that brand new thing!
Comments