Offspring - Pretty Fly For A White Guy Chords & Tabs

 

Pretty Fly For A White Guy Chords & Tabs

Offspring Chords & Tabs

Version: 2 Type: Tab 2 ratings
1 star 2 stars 3 stars 4 stars 5 stars
comments

Pretty Fly For A White Guy Tab

Luke J
lj@888.nu
http://l.j.homepage.com
------------------------
PRETTY FLY    by Offspring

Chorus Riff (only bass on verse)
-------------------------
-------------------------
-------------------------
-------------------2--0--
-2--2-----0--2--2--------
-------2-----------------

Bridge Riff
---------------------------------------------------------
---------------------------------------------------------
---------------------------------------------------------
---------------------------------------------------------
-------3-h4-3-h4--------3-h4-3-h4--0--0----0--2---2--0---
-2--2---------------2--2-----------------0--------------0
---------------------------------------------------------
[ Tab from: http://www.guitartabs.cc/tabs/o/offspring/pretty_fly_for_a_white_guy_tab_ver_2.html ]
----------------------------------------------------------
----------------------------------------------------------
-0--0-----0------------------4----------------------------
-------0--------------------------4-3-0-2-----------------
-------------0--0-----0---2-----2----------2--------------
-------------------0--------------------------------------

Other Bit (gettin a tattoo..)
---------------------------------------------------------
---------------------------------------------------------
-----------------------------4---------------------------
------------------------------------2--0-----------------
--2----0-2----0-2------0-2------2------------------------
---------------------------------------------------------

Also on the verse the guitar repeatedly plays.....
-7--7
-7--7
-----
-----
-----
-----

Comments