Offspring - Pretty Fly For A White Guy Chords & Tabs

 

Pretty Fly For A White Guy Chords & Tabs

Offspring Chords & Tabs

Version: 10 Type: Tab 0 ratings
1 star 2 stars 3 stars 4 stars 5 stars
comments

Pretty Fly For A White Guy Tab

                        Pretty Fly (For A White Guy)

Spur 1
                                                                         
E||-----------------------|----------------------|----------------------|
B||-----------------------|----------------------|----------------------|
G||*----------------------|------------9----7----|----------------------|
D||*--9------9--4----7----|--9------9--9----7----|--9------9--4----7----|
A||---9------9--4----7----|--9------9--7----5----|--9------9--4----7----|
E||---7------7--2----5----|--7------7------------|--7------7--2----5----|

-----------------------|----------------------|----------------------|
-----------------------|----------------------|----------------------|
-------------9----7----|----------------------|------------9----7----|
--9--9----9--9----7----|--9------9--4----7----|--9------9--9----7----|
--9--9----9--7----5----|--9------9--4----7----|--9------9--7----5----|
--7--7----7------------|--7------7--2----5----|--7------7------------|

----------------------|-------------------|------7------7------|
----------------------|-------------------|------7------7------|
----------------------|-------------------|--------------------|
--9------9--4----7----|--9----------------|--------------------|
--9------9--4----7----|--9----------------|--------------------|
--7------7--2----5----|--7----------------|--------------------|

------7------7------|------7------7------|------7------7------|
------7------7------|------7------7------|------7------7------|
--------------------|--------------------|--------------------|
--------------------|--------------------|--------------------|
--------------------|--------------------|--------------------|
--------------------|--------------------|--------------------|

------7------7------|------7------7------|------7------7------|
------7------7------|------7------7------|------7------7------|
--------------------|--------------------|--------------------|
--------------------|--------------------|--------------------|
--------------------|--------------------|--------------------|
--------------------|--------------------|--------------------|

------------------|----------------------------|----------------------------|
------------------|----------------------------|----------------------------|
------------------|------------10-/11--10-/11--|------------10-/11--10-/11--|
------------------|--9------9--10-/11--10-/11--|--9------9--10-/11--10-/11--|
------------------|--9------9--8--/9---8--/9---|--9------9--8--/9---8--/9---|
------------------|--7------7------------------|--7------7------------------|

----------------------|-----------------------|----------------------------|
----------------------|-----------------------|----------------------------|
--7------7-------7----|--7--9----9--7---------|------------10-/11--10-/11--|
--7------7--7----7----|--7--9----9--7----7----|--9------9--10-/11--10-/11--|
--5------5--7----5----|--5--7----7--5----7----|--9------9--8--/9---8--/9---|
------------5---------|------------------5----|--7------7------------------|

----------------------------|----------------------|--------------------------|
----------------------------|----------------------|--------------------------|
------------10-/11--10-/11--|--7------7-------7----|--7--9----7--9--10--9--7--|
--9------9--10-/11--10-/11--|--7------7--7----7----|--7--9----7--9--10--9--7--|
--9------9--8--/9---8--/9---|--5------5--7----5----|--5--7----5--7--8---7--5--|
--7------7------------------|------------5---------|--------------------------|

----------------------------|----------------------------|
----------------------------|----------------------------|
------------10-/11--10-/11--|------------10-/11--10-/11--|
--9------9--10-/11--10-/11--|--9------9--10-/11--10-/11--|
--9------9--8--/9---8--/9---|--9------9--8--/9---8--/9---|
--7------7------------------|--7------7------------------|

----------------------|-----------------------|-------------------------|
----------------------|-----------------------|-------------------------|
--7------7-------7----|--7--9----9--7---------|--12------12--7----12----|
--7------7--7----7----|--7--9----9--7----7----|--12------12--7----12----|
--5------5--7----5----|--5--7----7--5----7----|--10------10--5----10----|
------------5---------|------------------5----|-------------------------|

-------------------------|----------------------------|--------------------||
-------------------------|----------------------------|--------------------||
--14------14--9----14----|--------11--10--9-----7--9--|-------------------*||
--14------14--9----14----|--9--9--11--10--9--9--7--9--|--9----------------*||
--12------12--7----12----|--9--9--9---8---7--9--5--7--|--9-----------------||
-------------------------|--7--7-------------7--------|--7-----------------||
[ Tab from: http://www.guitartabs.cc/tabs/o/offspring/pretty_fly_for_a_white_guy_tab_ver_10.html ]
  (BASS PLAYS)                                                             
--------------------|--------------------|--------------------|
--------------------|--------------------|--------------------|
--------------------|--------------------|--------------------|
--------------------|--------------------|--------------------|
--------------------|--------------------|--------------------|
--7--------------5--|--7--------------5--|--7--------------5--|

                       (GUITAR STARTS)
------------------------|--------------------|--------------------|
------------------------|--------------------|--------------------|
------------------------|--------------------|--------------------|
------------------------|--9--------------7--|--9--------------7--|
--------------7----5----|--9--------------7--|--9--------------7--|
--7--7--7--7------------|--7--------------5--|--7--------------5--|

--------------------|---------------------------|----------------------|
--------------------|---------------------------|----------------------|
--------------------|--------------9-/10--9--7--|----------------------|
--9--------------7--|--9--9--9--9--9-/10--9--7--|--9------9--4----7----|
--9--------------7--|--9--9--9--9--7-/8---7--5--|--9------9--4----7----|
--7--------------5--|--7--7--7--7---------------|--7------7--2----5----|

----------------------|----------------------|-----------------------|
----------------------|----------------------|-----------------------|
------------9----7----|----------------------|-------------9----7----|
--9------9--9----7----|--9------9--4----7----|--9--9----9--9----7----|
--9------9--7----5----|--9------9--4----7----|--9--9----9--7----5----|
--7------7------------|--7------7--2----5----|--7--7----7------------|

----------------------|----------------------|-------------------|
----------------------|----------------------|-------------------|
----------------------|------------9----7----|-------------------|
--9------9--4----7----|--9------9--9----7----|--9----------------|
--9------9--4----7----|--9------9--7----5----|--9----------------|
--7------7--2----5----|--7------7------------|--7----------------|

---------------------|----------------------------|----------------------------|
---------------------|----------------------------|----------------------------|
-----------9----7----|------------10-/11--10-/11--|------------10-/11--10-/11--|
--------9--9----7----|--9------9--10-/11--10-/11--|--9------9--10-/11--10-/11--|
--------9--7----5----|--9------9--8--/9---8--/9---|--9------9--8--/9---8--/9---|
--------7------------|--7------7------------------|--7------7------------------|

----------------------|-----------------------|----------------------------|
----------------------|-----------------------|----------------------------|
--7------7-------7----|--7--9----9--7---------|------------10-/11--10-/11--|
--7------7--7----7----|--7--9----9--7----7----|--9------9--10-/11--10-/11--|
--5------5--7----5----|--5--7----7--5----7----|--9------9--8--/9---8--/9---|
------------5---------|------------------5----|--7------7------------------|

----------------------------|----------------------|--------------------------|
----------------------------|----------------------|--------------------------|
------------10-/11--10-/11--|--7------7-------7----|--7--9----7--9--10--9--7--|
--9------9--10-/11--10-/11--|--7------7--7----7----|--7--9----7--9--10--9--7--|
--9------9--8--/9---8--/9---|--5------5--7----5----|--5--7----5--7--8---7--5--|
--7------7------------------|------------5---------|--------------------------|

----------------------------|----------------------------|
----------------------------|----------------------------|
------------10-/11--10-/11--|------------10-/11--10-/11--|
--9------9--10-/11--10-/11--|--9------9--10-/11--10-/11--|
--9------9--8--/9---8--/9---|--9------9--8--/9---8--/9---|
--7------7------------------|--7------7------------------|

----------------------|-----------------------|-------------------------|
----------------------|-----------------------|-------------------------|
--7------7-------7----|--7--9----9--7---------|--12------12--7----12----|
--7------7--7----7----|--7--9----9--7----7----|--12------12--7----12----|
--5------5--7----5----|--5--7----7--5----7----|--10------10--5----10----|
------------5---------|------------------5----|-------------------------|

-------------------------|-------------------------|-------------------------|
-------------------------|-------------------------|-------------------------|
--14------14--9----14----|--12------12--7----12----|--14------14--9----14----|
--14------14--9----14----|--12------12--7----12----|--14------14--9----14----|
--12------12--7----12----|--10------10--5----10----|--12------12--7----12----|
-------------------------|-------------------------|-------------------------|

-------------------------|-------------------------|
-------------------------|-------------------------|
--12------12--7----12----|--14------14--9----14----|
--12------12--7----12----|--14------14--9----14----|
--10------10--5----10----|--12------12--7----12----|
-------------------------|-------------------------|

----------------------------|-------------------||
----------------------------|-------------------||
--------11--10--9-----7--9--|-------------------||
--9--9--11--10--9--9--7--9--|--9----------------||
--9--9--9---8---7--9--5--7--|--9----------------||
--7--7-------------7--------|--7----------------||
Comments