Offspring - Pretty Fly For A White Guy Chords & Tabs

 

Pretty Fly For A White Guy Chords & Tabs

Offspring Chords & Tabs

Version: 7 Type: Bass Tab 0 ratings
1 star 2 stars 3 stars 4 stars 5 stars
comments

Pretty Fly For A White Guy Bass Tab

G-----------------------------------------
D--------------2-0-------------2-0--------
A--2-2---0-2-2-----2-2---0-2-2------------
E------2---------------2------------------ Do this for all the verse

G-----------------------------------------------
D------2h4-2h4-----2h4-2h4--0-0---0-2-2-0-2-0---
A--2-2---------2-2--------------0-------------2-
E----------------------------------------------- Do this for all the chorus
except the last bit of the chorus which goes:

G-----------------------------------------------
D-----2h4-2h4-----2h4-2h4--0-0---0-2-2-0-2-0----
A-2-2---------2-2--------------0-------------2--
E-----------------------------------------------

[ Tab from: http://www.guitartabs.cc/tabs/o/offspring/pretty_fly_for_a_white_guy_btab_ver_7.html ]
G--0-0---0-----------------------------------
D------0---------------4-3-2-0-2-4-----------
A----------0-0---0---2-------------2-2-0-2---
E--------------0-----------------------------


Bridge thingy

G------------------------4---------    
D----------------------------2-0---   X2
A-2----0h2----0h2----0h2---2-------
E----------------------------------

On the last chorus the bit that goes

G--0-0---0------------
D------0--------------
A----------0-0---0----
E--------------0------
you do it 3 times and then do the

G----------------------------
D----4-3-2-0-2-4-------------
A--2-------------2-2-0-2-----
E----------------------------

i think thats about it. It's probably a bit wrong but I'm only 11 so please tell me if its wrong.
Comments