Offspring - Pretty Fly For A White Guy Chords & Tabs

 

Pretty Fly For A White Guy Chords & Tabs

Offspring Chords & Tabs

Version: 6 Type: Bass Tab 0 ratings
1 star 2 stars 3 stars 4 stars 5 stars
comments

Pretty Fly For A White Guy Bass Tab

Artist: The Offspring
Song: Pretty Fly (For A White Guy)
Tabs: WeAreOne

Verse: x8
G|-----------------|
D|------------2-0--|
A|-2-2--0-22-2-----|
E|-----2-----------|

Chorus: x1
G|-----------------------------------------|
D|-----3h4-3h4-----3h4-3h4-----------------|
A|-2-2---------2-2----------5-505-7777-50--|
E|-----------------------------------------|

G|-------------------------------------------|
D|-----3h4-3h4-----3h4-3h4-------------75----|
A|-2-2---------2-2----------5-505-777-5--75--|
E|-------------------------------------------|

G|-----------------------------------------|
D|-----3h4-3h4-----3h4-3h4-----------------|
A|-2-2---------2-2----------5-505-7777-50--|
E|-----------------------------------------|

G|------------------------|
D|-5-5-5-7-7-7----4320---|
A|----5------7---22----2--|
E|------------------------|

Verse: x8

Chorus: x1

Break: x1
G|-----------------4------|
D|--------------------20--|
A|-2---02---02---02--0----|
E|------------------------|
[ Tab from: http://www.guitartabs.cc/tabs/o/offspring/pretty_fly_for_a_white_guy_btab_ver_6.html ]
G|------------------42-------|
D|--------------------42-----|
A|-2---02---02---02-----420--|
E|---------------------------|

Verse: x3 Followed by:
G|-------------------|
D|---------------20--|
A|-2------------2----|
E|-------------------|
Outro: x1
G|-----------------------------------------|
D|-----3h4-3h4-----3h4-3h4-----------------|
A|-2-2---------2-2----------5-505-7777-50--|
E|-----------------------------------------|

G|-------------------------------------------|
D|-----3h4-3h4-----3h4-3h4-------------75----|
A|-2-2---------2-2----------5-505-777-5--75--|
E|-------------------------------------------|

G|-----------------------------------------|
D|-----3h4-3h4-----3h4-3h4-----------------|
A|-2-2---------2-2----------5-505-7777-50--|
E|-----------------------------------------|

G|----------------------------------------------------|
D|-5-5-5-7-7-7--5-5-5--7-7-7--5-5-5--7-7-7----4320---|
A|----5------7------5------7------5------7---22----2--|
E|----------------------------------------------------|
Comments