Offspring - Pretty Fly For A White Guy Chords & Tabs

 

Pretty Fly For A White Guy Chords & Tabs

Offspring Chords & Tabs

Version: 3 Type: Bass Tab 1 rating
1 star 2 stars 3 stars 4 stars 5 stars
comments

Pretty Fly For A White Guy Bass Tab

   
#----------------------------------PLEASE NOTE---------------------------------#
#This file is the author's own work and represents their interpretation of the #
#song. You may only use this file for private study, scholarship, or research. #
#------------------------------------------------------------------------------#


Verse/Intro
G--------------------
D---------------2-0--
A-2--2---0-2--2------
E------2-------------
[ Tab from: http://www.guitartabs.cc/tabs/o/offspring/pretty_fly_for_a_white_guy_btab_ver_3.html ]
Chorus (x2)  "..you know he doesnt.."
G---------------|------------------
D-------3h4r3h4-|------------------
A-2---2---------|--5-5---5-7-7---7-
E---------------|------5-------7---

"the world needs one of me..."
G-------------------------------------
D-------------------------------------
A-------------------------------------
E-3-3-3-3-3-3-3-3-3-5-5-5-5-5-5-5-5-5-

"Now hes gettin a tattoo..."
G----------------------------
D------------------------2-0-
A-2-----0-2----2---0---2-----
E----------------------------

That Should be right
Comments