Offspring - Pretty Fly For A White Guy Chords & Tabs

 

Pretty Fly For A White Guy Chords & Tabs

Offspring Chords & Tabs

Version: 1 Type: Bass Tab 0 ratings
1 star 2 stars 3 stars 4 stars 5 stars
comments

Pretty Fly For A White Guy Bass Tab

Song: Pretty Fly (For A White Guy)
Artist: The Offspring
Album: Americana
Tabbed By: Ba$$ Lizard
*Member of the Bass Tab Archive Tabbing Army*
Previous Author: Christian Mangs

Intro/Verse (After the lyric "And all the girlies say I'm pretty fly for a white guy")

G:-----------------------
D:-----------------------
A:-2--2-------------7-5--
E:------2-5--7-7--7------ Play 8X, then

Chorus

G:-----------------------------------------------------
D:------3h4-3h4-------3h4-3h4--------------------------
A:-2--2----------2--2----------5--5---5--5-7-7-7-5-----
E:----------------------------------5---------------5--

G:-------------------------------------------------------
D:------3h4-3h4-------3h4-3h4----------------------------
A:-2--2----------2--2----------5--5---5--5-7-7-5-7-8-7-5-
E:----------------------------------5--------------------
[ Tab from: http://www.guitartabs.cc/tabs/o/offspring/pretty_fly_for_a_white_guy_btab.html ]
G:-----------------------------------------------------
D:------3h4-3h4-------3h4-3h4--------------------------
A:-2--2----------2--2----------5--5---5--5-7-7-7-5-----
E:----------------------------------5---------------5-- All that 1X, then

Post Chorus: 

G:---------------------------------------
D:-2--5-5---5-------------4-3-2---0h2----
A:--------5-----------2-2-------2-----2--
E:------------5-5-0-5-------------------- Play 1X 

Play The Verse 8X
Play The Chorus 1X
Play Post Chorus 1X, then

Bridge

G:---------------------4---------
D:--------------------------2--0-
A:-2---0h2---0h2---0h2----2------
E:-------------------------------


G:---------------------4--2---4-------
D:--------------------------4---2-3-0-
A:-2---0h2---0h2---0h2----------------
E:------------------------------------ All that 1X, then

Play the Verse 4X
Play the Chorus 1x, then

Outro:

G------------------------------------------------------------------------------
D-2--5-5---5----------2--5-5---5----------2--5-5---5--------------4-3-2---0h2--
A--------5-------------------5-------------------5------------2-2-------2-----2
E------------5-5--0-5------------5-5--0-5------------5-5--0-5------------------

Comments