Offspring - Pay The Man Chords & Tabs

 

Pay The Man Chords & Tabs

Offspring Chords & Tabs

Version: 6 Type: Tab 0 ratings
1 star 2 stars 3 stars 4 stars 5 stars
comments

Pay The Man Tab

Artist: The Offspring
Song Title: Pay The Man
Album title: Americana
Tabbed By: coldfire3 aka AAA aka Matt
Tuning: Standard
Key:
/ = Silde Up
\ = Slide down

Note: I've written the first half of the song for both rhythm and lead.
The second half is pretty much teh same for both.
I've divided the song up into halfs. I'll start with the first half 
obviously, then go on
with the second. Kind of a no brainer there :).

I've added the order of the parts down the bottom. Just incase you need it.

RHYTHM
------

Intro
e|----------------------------------------------------------------------------------
B|----------------------------------------------------------------------------------
G|----------------------------------------------------------------------------------
D|--9--10--14--13--5-7/9------9--10--14--13--13-13/16-16--9--10--14--13--5-7/9------
A|--7--8---12--11--5-5/7--9---7--8---12--11--11-11/14-14--7--8---12--11--5-5/7--9---
E|------------------------7-----------------------------------------------------7---

e|------------------|
B|------------------|
G|------------------|
D|------------------|
A|--7-7--7--7--9----|
E|--5-5--5--5--7----|

^'-*-Drums In-*-'^

This next part will be for the rhythm behind lead intro, as well as the 
rhythm for the verse.
(PART 1)
e|------------------------------------------------------------|
B|------------------------------------------------------------|
G|------------------------------------------------------------|
D|--8/9-9-9--9-9-8-8/9-9-9-9--910\9-9-9--9-9--7-7/9-9-9-9--9--|
A|--6/7-7-7--7-7-6-6/7-7-7-7--7-8\7-7-7--7-7--5-5/7-7-7-7--7--|
E|------------------------------------------------------------|

This will play through twice before the lead comes in, and coninue on 
playing until
the last note of the lead, where it will go like this

(PART 2) [distorted]
e|---------------------------------|
B|---------------------------------|
G|----------10--10-10--2---2-2--2--|
D|--7--7-7--10--10-10--2---2-2--2--|
A|--7--7-7--8---8--8---2---2-2--2--|
E|--5--5-5-------------0---0-0--0--|

Remember, start this ON the last note of the lead.
Play it through 3 times, and on the last time only play up to the end of the 
8's.

That's it for the rhythm for now.

Remember to play the second part behind the verse, though.

LEAD
----
The intro to the lead guitar is played after the rhythm has run through the 
second
part of the rhythm work twice.

I'm pretty sure this is all played with your index finger.

INTRO/SOLO
e|--10-8-7-5-4--4--5-5/7-5-4-1-0--10-8-7-5-4--4--5-5/7-5-4-1-0--
B|--------------------------------------------------------------
G|--------------------------------------------------------------
D|--------------------------------------------------------------
A|--------------------------------------------------------------
E|--------------------------------------------------------------

e|--0-1-1/4-4-4-4--4-5-5/7-7-5-4--0-1-1/4-4-4-4--4-5-5/7-7-5-4--4--
B|-----------------------------------------------------------------
G|-----------------------------------------------------------------
D|-----------------------------------------------------------------
A|-----------------------------------------------------------------
E|-----------------------------------------------------------------

e|--4-5-5/7-7-7-7--7-8-8/10-10--12-12/13-12-10--10/12-10-8-7-7/8-7-5-4--4-4/5-4--
B|-------------------------------------------------------------------------------
G|-------------------------------------------------------------------------------
D|-------------------------------------------------------------------------------
A|-------------------------------------------------------------------------------
E|-------------------------------------------------------------------------------

e|--4-5-5/7-7-7-7--7-8-8/10-10--12-12/13-12-10--10/12-12-8-7-7-7-7-7/12-12-12-12--
B|--------------------------------------------------------------------------------
G|--------------------------------------------------------------------------------
D|--------------------------------------------------------------------------------
A|--------------------------------------------------------------------------------
E|--------------------------------------------------------------------------------

e|--12-12-12--12-12-12--12-12-12--12-12-12--12-12-12--12-12-12--
B|--------------------------------------------------------------
G|--------------------------------------------------------------
D|--------------------------------------------------------------
A|--------------------------------------------------------------
E|--------------------------------------------------------------

e|--12-13-13/16-16-16-16--16-13-12--12--12/13-12--
B|------------------------------------------------
G|------------------------------------------------
D|------------------------------------------------
A|------------------------------------------------
E|------------------------------------------------

e|--12-13-13/16-16-16-16--16-13-12--12--12/13-12--
B|------------------------------------------------
G|------------------------------------------------
D|------------------------------------------------
A|------------------------------------------------
E|------------------------------------------------
[ Tab from: http://www.guitartabs.cc/tabs/o/offspring/pay_the_man_tab_ver_6.html ]
e|--12-13-13/16-16-16-16--16-13-12--12--12/13-12--
B|------------------------------------------------
G|------------------------------------------------
D|------------------------------------------------
A|------------------------------------------------
E|------------------------------------------------

e|--12-13-13/16-16-16-16--16-13-12--12--12/13-12-10-8-7-5---
B|----------------------------------------------------------
G|----------------------------------------------------------
D|----------------------------------------------------------
A|----------------------------------------------------------
E|----------------------------------------------------------

After the rhythm has played Part 2 of the rhythm through twice, begin with 
the following.

e|--12/13-12-10-8-7-5--5-7-7/8-7-5--1-1-4-4/5-4-1-0-0--0-12-12-12-
B|----------------------------------------------------------------
G|----------------------------------------------------------------
D|----------------------------------------------------------------
A|----------------------------------------------------------------
E|----------------------------------------------------------------

e|--12/13-12-10-8-7-5--5-7-7/8-7-5--1-1-4-4/5-4-1-0-0-
B|----------------------------------------------------
G|----------------------------------------------------
D|----------------------------------------------------
A|----------------------------------------------------
E|----------------------------------------------------

VERSE
-----
(PART 1)
e|------------------------------------------------------------
B|------------------------------------------------------------
G|------------------------------------------------------------
D|------7-6--------------------------7-6----------------------
A|--7-8-----8--7--7-8-7-8-5-5/7--7-8-----8--7--7-8-7-8-5-5/7--
E|------------------------------------------------------------

e|------------------------------------------
B|------------------------------------------
G|------------------------------------------
D|--7/9-9--9-7------------------------------
A|-------------8--8--8/10-12-10-8-8-8\7--7--
E|------------------------------------------

e|------------------------------------------
B|------------------------------------------
G|------------------------------------------
D|--7/9-9--9-7------------------------------
A|-------------8--8--8/10-12-10-8-8-8\7--7--
E|------------------------------------------

(PART 2)
e|---------------------------------------------
B|---------------------------------------------
G|---------------------------------------------
D|---------------------------------------------
A|--5--5-5/12-12--12-12\11-11--11-11\7-7--7-7--
E|---------------------------------------------

SECOND HALF
-----------
(PART 1)
e|---------------------------------------------------------
B|---------------------------------------------------------
G|---------------------------------------------------------
D|--7/9---9--9-9-7/9-9-9-5--5/7--7/9---9--9-9-7/9-9-14-13--
A|--5/7---7--7-7-5/7-7-7-3--3/5--5/7---7--7-7-5/7-7-12-11--
E|------0----------------------------0---------------------

(PART 2)
e|----------------------
B|----------------------
G|--7--7--5--5-5-5-5----
D|--7--7--5--5-5-5-5-2--
A|--5--5--3--3-3-3-3-2--
E|-------------------0--

(PART 3)
e|---------------------------------------------------------------------------------------
B|---------------------------------------------------------------------------------------
G|---------------------------------------------------------------------------------------
D|--7/9---9--9-9-7/9-9-9-5--5/7-7/9---9--9-9-7/9-9-9-5--5/7-7/9---9--9-9-7/9-9-9-5--5/7--
A|--5/7---7--7-7-5/7-7-7-3--3/5-5/7---7--7-7-5/7-7-7-3--3/5-5/7---7--7-7-5/7-7-7-3--3/5--
E|------0---------------------------0---------------------------0------------------------

e|----------------------------
B|----------------------------
G|----------------------------
D|--7/9---9--9-9-7/9-9-14-13--
A|--5/7---7--7-7-5/7-7-12-11--
E|------0---------------------

That's it! Song over. Finished.
I've compiled a more direct explenation underneath.
I'm sure you can work it out without my explenations, though.
If i've made any mistakes with the order or notes, i'm sure you can correct 
them yourselves.
If you have any queries, comments, flames or death threats [joke],
please direct them to my e-mail address...
green_guitar15@hotmail.com


RHYTHM [clean]
------
Intro x1
Part 1 all the way until part 2
Part 2 x3 + up to last 8....|distorted|
Part 1 until second half of song. Remeber to play the whole verse twice. 
Excludes where noted.

LEAD [distorted]
----
Intro x1
-Verse-
Part 1 x1
Part 2 x4
Part 1 x1
Part 2 x4


LEAD + RHYTHM (second half of song)
----------------------------------
Part 1 x2 .................|clean|
Part 1 x2 .................|distorted|
Part 1 x4 PM ..............|distorted|
Part 2 x3 + up to last 3 ..|distorted|
Part 1 x2 .................|distorted|
Part 1 x4 PM ..............|distorted|
Part 3 x2 .................|distorted|
Part 2 x3 + up to last 3 ..|distorted|
Part 1 x1 .................|clean|
Part 1 x1 .................|distorted|
Part 1 x2 PM ..............|distorted|
Part 1 x2 .................|distorted|
(Outro)
Part 2 x2 .................|distorted|
Part 2 x2 .................|clean|

















Comments