Offspring - Pay The Man Chords & Tabs

 

Pay The Man Chords & Tabs

Offspring Chords & Tabs

Version: 4 Type: Tab 0 ratings
1 star 2 stars 3 stars 4 stars 5 stars
comments

Pay The Man Tab

#----------------------------------PLEASE NOTE---------------------------------#
#This file is the author's own work and represents their interpretation of the #
#song. You may only use this file for private study, scholarship, or research. #
#------------------------------------------------------------------------------##
Offspring
Pay The Man

\=slide down
/=slide up

Intro 1 (Guitar 1 w/clean tone & delay)

e|-----------------------------------------------------------------
B|-----------------------------------------------------------------
G|-9---10--14---13--7--7-/9--\4----9---10--14---13---13---13--/16--
D|-x---x---x----x---x--x-/x--\x----x---x---x----x----x----x---/x---
A|-7---8---12---11--5--5-/7--\2----7---8---12---11---11---11--/14--
E|-0---0---0----0---0--0-/0--\0----0---0---0----0----0----0---/0---

e|---------------------------------------------------------|
B|---------------------------------------------------------|
G|-9---10--14---13--7--7-/9--\4--------------------------4-|
D|-x---x---x----x---x--x-/x--\x--------------------------x-|
A|-7---8---12---11--5--5-/7--\2----0-----0-----0-----0---2-|
E|-0---0---0----0---0--0-/0--\0----0-----0-----0-----0---0-|

Drums enter and play for 7 bars

Intro 2 (Guitar 1 w/clean tone & delay)

e|-0---0---0--0--0--0----0--0--0--0---0----0------0--0----0--0--0--
B|-0---0---0--0--0--0----0--0--0--0---0----0------0--0----0--0--0--
G|-9---9---9--9--8--8//9-9--9--9--9---10---10\\9--9--9----9--9--7--
D|-9---9---9--9--9--9----9--9--9--9---10---10\\9--9--9----9--9--7--
A|-7---7---7--7--7--7----7--7--7--7---8----8 \\7--7--7----7--7--5--
E|-0---0---0--0--0--0----0--0--0--0---0----0------0--0----0--0--0--

e|-0-----0--0---0--0--0--0----0--0----0--0--0---0--0----0--0--0--0--0--
B|-0-----0--0---0--0--0--0----0--0----0--0--0---0--0----0--0--0--0--0--
G|-7//9--9--9---9--9--8--8//9-9--9----9--9--9---8--8//9-9--9--9--9--10-
D|-7//9--9--9---9--9--9--9----9--9----9--9--9---9--9----9--9--9--9--10-
A|-5//7--7--7---7--7--7--7----7--7----7--7--7---7--7----7--7--7--7--8--
E|-0-----0--0---0--0--0--0----0--0----0--0--0---0--0----0--0--0--0--0--

e|-0---0--0--0----0--0--0----0------0--0--0---0--0-|
B|-0---0--0--0----0--0--0----0------0--0--0---0--0-|
G|-10\\9--9--9----9--9--7----7//9---9--9--9---9--8-|
D|-10\\9--9--9----9--9--7----7//9---9--9--9---9--9-|
A|-8 \\7--7--7----7--7--5----5//7---7--7--7---7--7-|
E|-0------0--0----0--0--0----0------0--0--0---0--0-|

Intro solo (guitar 2 w/slight dist.)

e|-10--8--7--5--4---4--5--5//7\\5--4--1--0---0//10--8--7--5--4---4--5-
B|--------------------------------------------------------------------
G|--------------------------------------------------------------------
D|--------------------------------------------------------------------
A|--------------------------------------------------------------------
E|--------------------------------------------------------------------

e|-5//7\\5--4--1--0---0--1--1//4--4--4--4---4--5--5//7--7--5--4--0--1-
B|--------------------------------------------------------------------
G|--------------------------------------------------------------------
D|--------------------------------------------------------------------
A|--------------------------------------------------------------------
E|--------------------------------------------------------------------

e|-1//4--4--4--4---4--5--5//7--7--5--4--4//--5//7--7--7--7---7---8----
B|--------------------------------------------------------------------
G|--------------------------------------------------------------------
D|--------------------------------------------------------------------
A|--------------------------------------------------------------------
E|--------------------------------------------------------------------

e|-8//10--10--12-12//13-12-10----10//12--10--8--7-7//8-7-5---4---4//5-
B|--------------------------------------------------------------------
G|--------------------------------------------------------------------
D|--------------------------------------------------------------------
A|--------------------------------------------------------------------
E|--------------------------------------------------------------------

e|-4---4--5--5//7--7--7--7---7--8--8//10--10--12-12//13-12-10--10//12-
B|--------------------------------------------------------------------
G|--------------------------------------------------------------------
D|--------------------------------------------------------------------
A|--------------------------------------------------------------------
E|--------------------------------------------------------------------

e|-10--8--7--7--7--7--7//12--12--12--12---12--12--12---12-12--12---12-
B|--------------------------------------------------------------------
G|--------------------------------------------------------------------
D|--------------------------------------------------------------------
A|--------------------------------------------------------------------
E|--------------------------------------------------------------------

e|-12---12--12--12--12---12--12--12---12--12--12---12--13--13//16--16-
B|--------------------------------------------------------------------
G|--------------------------------------------------------------------
D|--------------------------------------------------------------------
A|--------------------------------------------------------------------
E|--------------------------------------------------------------------

e|-16--16---16\\13---12---12-12//13--12---12--13---13//16--16--16--16-
B|--------------------------------------------------------------------
G|--------------------------------------------------------------------
D|--------------------------------------------------------------------
A|--------------------------------------------------------------------
E|--------------------------------------------------------------------

e|-16\\13--12---12-12//13--12---12--13--13//16--16--16--16---16\\13---
B|--------------------------------------------------------------------
G|--------------------------------------------------------------------
D|--------------------------------------------------------------------
A|--------------------------------------------------------------------
E|--------------------------------------------------------------------

e|-12---12-12//13-12--12--13---13//16--16--16--16---16\\13---12---12--
B|--------------------------------------------------------------------
G|--------------------------------------------------------------------
D|--------------------------------------------------------------------
A|--------------------------------------------------------------------
E|--------------------------------------------------------------------
[ Tab from: http://www.guitartabs.cc/tabs/o/offspring/pay_the_man_tab_ver_4.html ]
e|-12//13--12--10--8--7--5-----------|
B|-----------------------------------|
G|-----------------------------------|
D|-----------------------------------|
A|-----------------------------------|
E|-----------------------------------|

Solo Interlude (guitar 1 w/heavy dist.)

e|----------------------------------------------------------|
B|----------------------------------------------------------|
G|------------------10----10------10\\0---------------------|
D|--7-----7----x----10----10------10\\0----2-------------2--|
A|--7-----7----x----8-----8-------8 \\0----2-------------2--|
E|--5-----5----x---------------------------0-------------0--|

(guitar 2 w/slight dist.)

e|-5---5--5-7//8\\7--5--4--1---1--4-4//5\\4--1--0--0----0----0---12---
B|--------------------------------------------------------------------
G|--------------------------------------------------------------------
D|--------------------------------------------------------------------
A|--------------------------------------------------------------------
E|--------------------------------------------------------------------

e|-12---12//13-12---10--8--7---5---5-7//8\\7--5--4--1--1--4---4//5\\4-
B|--------------------------------------------------------------------
G|--------------------------------------------------------------------
D|--------------------------------------------------------------------
A|--------------------------------------------------------------------
E|--------------------------------------------------------------------

e|-1--0-----0--------|
B|-------------------|
G|-------------------|
D|-------------------|
A|-------------------|
E|-------------------|

Guitar 1 then plays Intro 2 throught once.

Verses (guitar 1 keeps playing Intro 2 quietly in the background while
        guitar 2 plays this)

e|--------------------------------------------------------------------
B|--------------------------------------------------------------------
G|--9----10---14---13----10-----9---------9-----10--9-----7-----7//9--
D|--x----x----x----x-----x------x---------x-----x---x-----x-----x//x--
A|--7----8----12---11----8------7---------7-----8---7-----5-----5//7--
E|--------------------------------------------------------------------
  'See  the   way  the  wind  blows,    

e|--------------------------------------------------------------------
B|--------------------------------------------------------------------
G|--9----10---14---13----10-----9---------9-----10--9-----7-----7//9--
D|--x----x----x----x-----x------x---------x-----x---x-----x-----x//x--
A|--7----8----12---11----8------7---------7-----8---7-----5-----5//7--
E|--------------------------------------------------------------------
  Watch  the  way  the  world  goes 

e|--------------------------------------------------------------------
B|--------------------------------------------------------------------
G|--16----16----16---14----10-----10-----12-----14-----12--10--10//9--
D|--x-----x-----x----x-----x------x------x------x------x---x---x //x--
A|--14----14----14---12----8------8------10-----12-----10--8---8 //7--
E|--------------------------------------------------------------------
  'Jest - er    in  the   corn - er  

e|--------------------------------------------------------------------|
B|--------------------------------------------------------------------|
G|--16----16----16---14----10-----10-----12-----14-----12--10--10//9--|
D|--x-----x-----x----x-----x------x------x------x------x---x---x //x--|
A|--14----14----14---12----8------8------10-----12-----10--8---8 //7--|
E|--------------------------------------------------------------------|
   Jest - er    in  the   corn - er     

Chorus (Guitar 1 w/clean tone)

e|-0---0--0--0---0--0---0----0---0---0----0---0----0---0--0--0---0--0--0--
B|-0---0--0--0---0--0---0----0---0---0----0---0----0---0--0--0---0--0--0--
G|-7---7--7--7---7--7---10---10--10--10---10--10---9---9--9--9---9--9--9--
D|-7---7--7--7---7--7---10---10--10--10---10--10---9---9--9--9---9--9--9--
A|-5---5--5--5---5--5---8----8---8---8----8---8----7---7--7--7---7--7--7--
E|-------------------------------------------------0---0--0--0---0--0--0--

e|-0--0---0--|
B|-0--0---0--|
G|-9--9---9--|
D|-9--9---9--|
A|-7--7---7--|
E|-0--0---0--|

(Guitar 2 w/slight dist.)

e|---------------------------------------------------------------------------
B|---------------------------------------------------------------------------
G|-7---7--7--7---7--7---14---14--14--14---14--14---13---13--13--13---13--13--
D|-x---x--x--x---x--x---x----x---x---x----x---x----x----x---x---x----x---x---
A|-5---5--5--5---5--5---12---12--12--12---12--12---11---11--11--11---11--11--
E|---------------------------------------------------------------------------

e|--------------|
B|--------------|
G|-9--9--9---9--|
D|-x--x--x---x--|
A|-7--7--7---7--|
E|--------------|

(Then go back to the verse and play the chorus)

Half-Time Feel (Guitar 3 w/clean tone)

e|-----------------------------------------------------------------------
B|-----------------------------------------------------------------------
G|-7--9--9--------9--9--7--7--9--9--5---5--5--7--9--9--------9--9--7--7--
D|-7--9--9--------9--9--7--7--9--9--5---5--5--7--9--9--------9--9--7--7--
A|-5--7--7--------7--7--5--5--7--7--3---3--3--5--7--7--------7--7--5--5--
E|----------0--0---------------------------------------0--0--------------
                   (Guitar 2 w/dist.)
e|----------------|                  e|----------------|
B|----------------|                  B|----------------|
G|-9--9--14---13--|                  G|----------------|
D|-9--9--14---13--|                  D|-2--------------|
A|-7--7--12---11--|                  A|-2--let ring----|
E|----------------|                  E|-0--------------|

(The guitars 1, 2 & 3 play the above riff w/dist. them palm muted)

Chorus (guitar 1 w/dist.)

e|--------------------------------------------------------------------------|
B|--------------------------------------------------------------------------|
G|-7---7---x--x---5---5---5---x---4---4--x----------------------------------|
D|-7---7---x--x---5---5---5---x---4---4--x--2--2--2---2--2--2---2--2--2--2--|
A|-5---5---x--x---3---3---3---x---2---2--x--2--2--2---2--2--2---2--2--2--2--|
E|------------------------------------------0--0--0---0--0--0---0--0--0--0--|

(guitar 4 w/clean tone & guitar 5 acoustic)

e|------------------------------------------0--0--0---0--0--0---0--0--0--0--|
B|-7---7---x--x---5---5---5---x---5---5--x--0--0--0---0--0--0---0--0--0--0--|
G|-7---7---x--x---5---5---5---x---4---4--x--0--0--0---0--0--0---0--0--0--0--|
D|-7---7---x--x---5---5---5---x---4---4--x--2--2--2---2--2--2---2--2--2--2--|
A|-5---5---x--x---3---3---3---x---2---2--x--2--2--2---2--2--2---2--2--2--2--|
E|------------------------------------------0--0--0---0--0--0---0--0--0--0--|
Comments