Offspring - Pay The Man Chords & Tabs

 

Pay The Man Chords & Tabs

Offspring Chords & Tabs

Version: 1 Type: Tab 0 ratings
1 star 2 stars 3 stars 4 stars 5 stars
comments

Pay The Man Tab

#-----------------------------------------------------------------------------#
#-- File created with Instab - http://www.pconline.com/~smcarey/instab.html --#
#-----------------------------------------------------------------------------#

Author/Artist: Offspring
Title: pay the man
Album: americana
Transcribed by: salvatore spanò
Email: salspan17@virgilio.it

O.k. this is the correct intro before drums start is not so
hard to play but you must get a good delay. then i've tabbed
verse the chorus is good in all the other tabs (D,F,E progression)
Let's go.

------------------------|-------------------|----------------------|----------
------------------------|-------------------|----------------------|----------
--9--10----/--14---13--\|-\--7---7/9--\-4--/|-/-9---10---/-14---13-|13--------
--x---x--------x----x---|----x---x------x---|---x----x------x----x-|-x--------
--7---8----/--12---11--\|-\--5---5/7--\-2--/|-/-7----8---/-12---11-|11--------
--0---0--------0----0---|----0---0------0---|---0----0------0----0-|-0--------
                                                                              

------------------|--------------------|----------------|----------------|----
------------------|--------------------|----------------|----------------|----
--13-/-16---16--\-|-\-9---10--/-14--13-|\-7---7-/-9---4-|--------------4-|----
---x---------x----|---x----x-----x---x-|--x---x-------x-|--------------x-|----
--11-/-14---14--\-|-\-7----8--/-12--11-|\-5---5-/-7---2-|-0--0--0--0---2-|----
---0---------0----|---0----0-----0---0-|--0---0-------0-|-0--0--0--0---0-|----
                                                           drums enter here   
[ Tab from: http://www.guitartabs.cc/tabs/o/offspring/pay_the_man_tab.html ]
--0---0---0--0--0-|--0------0--0--0--0---0-|--0-----0--0----0--0--0-|-0----0--
--0---0---0--0--0-|--0------0--0--0--0---0-|--0-----0--0----0--0--0-|-0----0--
--9---9---9--9--8-|--8p9----9--9--9--9--10-|-10-\9--9--9----9--9--7-|-7/9--9--
--9---9---9--9--9-|--9------9--9--9--9--10-|-10-\9--9--9----9--9--7-|-7/9--9--
--7---7---7--7--7-|--7------7--7--7--7---8-|--8-\7--7--7----7--7--5-|-5/7--7--
--0---0---0--0--0-|--0------0--0--0--0---0-|--0-----0--0----0--0--0-|-0----0--
 above the cool oriental sound; repeat this line till verse don't forget A5,  

-0--0--0--0-|-----------------------------------------------------------------
-0--0--0--0-|-----------------------------------------------------------------
-9--9--9--8-|-----------------------------------------------------------------
-9--9--9--9-|-----------------------------------------------------------------
-7--7--7--7-|-----------------------------------------------------------------
-0--0--0--0-|-----------------------------------------------------------------
 F5, E5 progression with heavy distorsion, now here's verse                   

------------------|------------|----------------|-----------------------------
------------------|------------|----------------|-----------------------------
--9--10--/14--13--|10---9------|--9---10--9--7--|--7/-9-----------------------
--x---x----x---x--|-x---x------|--x----x--x--x--|--x------x2------------------
--7---8--/12--11--|-8---7------|--7----8--7--5--|--5/-7-----------------------
------------------|------------|----------------|-----------------------------
 see the way......                                                            

------------------|---------------|-----------------|-------------------------
------------------|---------------|-----------------|-------------------------
--/16--16--16--14-|-10--10--10/12-|-12--/14--12--10-|-10\9--9--9--9-----------
----x---x---x---x-|--x---x---x--x-|--x----x---x---x-|--x----x--x--x--x2-------
--/14--14--14--12-|--8---8---8/10-|-10--/12--10---8-|--8\7--7--7--7-----------
------------------|---------------|-----------------|-------------------------
 jester in the corner......                                                   

Comments