Offspring - Out On Patrol Chords & Tabs

 

Out On Patrol Chords & Tabs

Offspring Chords & Tabs

Version: 1 Type: Tab 0 ratings
1 star 2 stars 3 stars 4 stars 5 stars
comments

Out On Patrol Tab

#----------------------------------PLEASE NOTE---------------------------------#
#This file is the author's own work and represents their interpretation of the #
#song. You may only use this file for private study, scholarship, or research. #
#------------------------------------------------------------------------------#

The Offspring
Out on Patrol
From the album 'The Offspring' (1990)
Tabbed by me (the_legend_kurt@hotmail.com)
________________________________________

The only other tab for this song on ultimate-guitar wasn't very accurate so I decided to tab it out myself. If it doesn't sound right at first stick with it, it's just the rythm that's a bit tricky.

There are 3 main guitars:

Guitar I- Acoustic [Standard tuning]
Guitar II- Rythm [Standard tuning]
Guitar III- Lead [Standard tuning]

__________________________________________
NOTATION LEGEND:

/ or \= slide
~~~~~~= vibrato highlighted notes
__________________________________________

  INTRO- FAST:

  Guitar I
e|.|-0-0-0-0-0-0-|-----------|-------------|-------------|.|
b|.|-1-1-1-1-1-1-|-3-3-3-3-3-|-0-0-0-0-0-0-|-0-0-0-0-0-0-|.|
g|.|-0-0-0-0-0-0-|-2-2-2-2-2-|-0-0-0-0-0-0-|-0-0-0-0-0-0-|.|
d|.|-2-2-2-2-2-2-|-0-0-0-0-0-|-2-2-2-2-2-2-|-2-2-2-2-2-2-|.|
a|.|-3-3-3-3-3-3-|-0-0-0-0-0-|-2-2-2-2-2-2-|-2-2-2-2-2-2-|.|
e|.|-0-0-0-0-0-0-|-----------|-0-0-0-0-0-0-|-0-0-0-0-0-0-|.|

  Guitar II- Starts after the above part has been played 3x.
e|--------------------------------------|
b|--------------------------------------|
g|--9--------9--------9--------9--------|
d|--9--------9--------9--------9--------|
a|--7--------7--------7--------7--------|
e|--------------------------------------|

  VERSE:  

  Guitar II  
e|-----------------------------------------|.|
b|-----------------------------------------|.|
g|-----------------------------------------|.|
d|--9--9--9--7--7--7-----------5--5--5--5--|.|
a|--7--7--7--5--5--5--7--7--7--3--3--3--3--|.|
e|--------------------5--5--5--------------|.|

  Guitar III- (After each line)
e|-------------------|
b|-------------------|
g|--7--7--7--5-/-10--|
d|--~--~--~--~~~~~~--|
a|-------------------|
e|-------------------|

  CHORUS:

  Guitar II   
e|------------------------------|
b|------------------------------|
g|--9--9---9--9---7---7---7--7--|
d|--9--9---9--9---7---7---7--7--|
a|--7--7---7--7---5---5---5--5--|
e|------------------------------|
       Now do you see___________| ..
[ Tab from: http://www.guitartabs.cc/tabs/o/offspring/out_on_patrol_tab.html ]
e|------------------------------------|
b|------------------------------------|
g|---------------------5-----5--5--5--|
d|--7--7----7-----7----5-----5--5--5--|
a|--7--7----7-----7----3-----3--3--3--|
e|--5--5----5-----5-------------------|
 ...fa_ding while_____________________|

e|--------------|--------------|
b|--------------|--------------|
g|--------------|--7--7--7--7--|
d|--9---9--9-9--|--7--7--7--7--|
a|--9---9--9-9--|--5--5--5--5--|
e|--7---7--7-7--|--------------|
   (Out on patrol!)

e|--------------------------------|
b|--------------------------------|
g|---------------------5---5---5--|
d|---7---7---7---7-----5---5---5--|
a|---7---7---7---7-----3---3---3--|
e|---5---5---5---5----------------|
 And all you can do_______________|..

  POST CHORUS:
 
  Guitar III
e|--------------------------------------|
b|--------------------------------------|
g|--5--5--5--7--7--7--------------------|
d|--------------------2--2--2--2--2--2--|
a|--------------------------------------|
e|--------------------------------------|

  Guitar I
e|--0-0-0-0-0-0-|-----------|-------------|-------------|
b|--1-1-1-1-1-1-|-3-3-3-3-3-|-0-0-0-0-0-0-|-0-0-0-0-0-0-|
g|--0-0-0-0-0-0-|-2-2-2-2-2-|-0-0-0-0-0-0-|-0-0-0-0-0-0-|
d|--2-2-2-2-2-2-|-0-0-0-0-0-|-2-2-2-2-2-2-|-2-2-2-2-2-2-|
a|--3-3-3-3-3-3-|-0-0-0-0-0-|-2-2-2-2-2-2-|-2-2-2-2-2-2-|
e|--0-0-0-0-0-0-|-----------|-0-0-0-0-0-0-|-0-0-0-0-0-0-|

  INTERLUDE:

  Guitar I
e|--0-0-0-0-0-0-|-----------|-------------|-------------|
b|--1-1-1-1-1-1-|-3-3-3-3-3-|-0-0-0-0-0-0-|-0-0-0-0-0-0-|
g|--0-0-0-0-0-0-|-2-2-2-2-2-|-0-0-0-0-0-0-|-0-0-0-0-0-0-|
d|--2-2-2-2-2-2-|-0-0-0-0-0-|-2-2-2-2-2-2-|-2-2-2-2-2-2-|
a|--3-3-3-3-3-3-|-0-0-0-0-0-|-2-2-2-2-2-2-|-2-2-2-2-2-2-|
e|--0-0-0-0-0-0-|-----------|-0-0-0-0-0-0-|-0-0-0-0-0-0-|

  Guitar III
e|------------|-----------|--------------|--------------|
b|------------|-----------|--------------|--------------|
g|--5---------|--5--------|--5-----------|--5-----------|
d|------------|-----------|--------------|--------------|
a|------------|-----------|--------------|--------------|
e|------------|-----------|--------------|--------------|

  OUTRO:

  Guitars II & III
e|------------------|
b|------------------|
g|--9----9----9--9--| x3
d|--9----9----9--9--|
a|--7----7----7--7--|
e|------------------|
    It's your life...

e|--------------------|
b|--------------------|
g|--7--7--------7--7--|
d|--7--7--7--7--7--7--|
a|--5--5--7--7--5--5--|
e|--------5--5--------|
    (Wo__ oh___ oh)___

e|-----------------------------------------|
b|-----------------------------------------|
g|--9-9-9-9-----------------------9-9-9-9--|
d|--9-9-9-9-----------------------9-9-9-9--|
a|--7-7-7-7-----------------------7-7-7-7--|
e|-----------------------------------------|
           "Uno dos tres quatroz!"
_______________________________________________________________

Copyright 2005. Contact: the_legend_kurt@hotmail.com
Comments