Offspring - Origional Prankster Chords & Tabs

 

Origional Prankster Chords & Tabs

Offspring Chords & Tabs

Version: 1 Type: Tab 0 ratings
1 star 2 stars 3 stars 4 stars 5 stars
comments

Origional Prankster Tab

I just figured it out.  This is a better version of it.  Once you get
the tune, it's really easy to play


[ Tab from: http://www.guitartabs.cc/tabs/o/offspring/origional_prankster_tab.html ]
Intro
|---------------------------------------------------|
|---------------------------------------------------|
|---------------------------------------------------|
|----------------------5----------------------------|
|--0-0-3-0-0---0-0-3-0---0-3-0---0-0-3-0-0--5-------|
|---------------------------------------------------|


|---------------------------------------------------|
|---------------------------------------------------|
|-----------5-----------------------5---------------|
|--0-0-3-0----0-5-5-3-5-3-0-0-0-3-0----0-5-5-3-5-3-0|




                          That's it it's fun and easy  
                     HAVE FUN!

                The offspring
                Origional Prankster
             Translated by Bobby Watts
Comments