Offspring - Original Prankster Chords & Tabs

 

Original Prankster Chords & Tabs

Offspring Chords & Tabs

Version: 6 Type: Tab 2 ratings
1 star 2 stars 3 stars 4 stars 5 stars
comments

Original Prankster Tab

   
#----------------------------------PLEASE NOTE---------------------------------#
#This file is the author's own work and represents their interpretation of the #
#song. You may only use this file for private study, scholarship, or research. #
#------------------------------------------------------------------------------##

This is Original prankster which i think is correct 100%.

TABBED BY: Danielle
SONG: Original Prankster
ALBUM: Conspiracy of one
ARTIST: The Offspring
EMAIL: Legogirl90@hotmail.com (please tittle it theorigtab)

INTRO
E|--------|---------------|-----------|----------------------|-
B|--------|---------------|-----------|----------------------|-
G|--------|---------------|-----------|----------------------|-
D|--------|---------------|-----------|----------------------|-
A|-00-3-00|-00-3-0-7-0-3-0|-00-3-00--5|-00-3-0-706---55-3-5-3|-
E|--------|---------------|-----------|----------------------|-
[ Tab from: http://www.guitartabs.cc/tabs/o/offspring/original_prankster_tab_ver_6.html ]
Verse
E|---------------------|-
B|---------------------|-
G|---------------------|-
D|---------------------|-
A|-00-3-0706--55-3-5-3-|-  Mute verse with your palm 
E|---------------------|-  meaning palm mute



INBIT
E|-----|
B|-----|
G|-----|   
D|-5-2-|
A|-5-2-|
E|-3-0-|

REPEAT VERSE
THEN...


E|-----|------------------------|-----|-
B|-----|------------------------|-----|-
G|-----|------------------------|-----|-
D|-5-2-|--------9----5/7-7-5/7-5|-5-6-|-
A|-5-2-|-7-10---7----3/5-5-3/5-3|-5-6-|-P.M
E|-3-0-|-5--8-------------------|-3-4-|-
   P.M (KNOCK DOWN THE WALL....)  



E|----------|-
B|----------|-
G|-----7--12|-
D|--7--7--12|-
A|--7--5--10|-
E|--5-------|-
(YOU GOTTA...) 
(that what's...)
E|-------|-----------
B|-------|---------
G|-12----|---------
D|-12-12-|----5---6------
A|-10-12-|----5---6-------
E|----10-|----3---4-----
i think the lyrics are ( you never stop no stop no?)

(If you have anything to say ect)

THAT SHOULD BE ALL THE RIFFS IN THE SONG.
WORK OUT WHERE THEY GO
IT'S NOT THAT HARD
Comments